Oops, an error
Loading. Please wait.

Curse Of Castle Dragon Tab

ver2
ver2

Whole song

Interactive

More versions @911Tabs.com
25,707 views 47 this week
5 commentsread comments
1 2 3 4 5
excellent!
x 8
Autoscroll
+/-
esc
set tempo
stop
Contributor
Difficulty
advanced
Hey! There's an official Ultimate Guitar app which is ideal
for learning songs when you're away from computer. Get the app
WARNING: You are trying to view
                                    content from Ultimate-Guitar.com
                                    in an unauthorized application,
                                    which is prohibited.

                                    Please use an official Ultimate
                                    Guitar Tabs application for iPhone,
                                    iPad or Android to access legitimate
                                    chords, guitar, bass, and drum tabs
                                    from Ultimate-Guitar.com database.

                                    Type "ultimate guitar tabs" in Apple
                                    App Store's or Android Market's
                                    search to find the application.
The Curse Of Castle Dragon

intro

                   PM-------------------------------------------------------------------|
|-[8]-------------|---------------------------------|-----------------------------------|
|---[8]-----------|---------------------------------|-----------------------------------|
|-----[8]---------|---------------------------------|-----------------------------------|
|-----------------|-2—------------------------------|-----------------------------------|
|----------x-/14\-|-0-0-0-0-0-0-0-0-0-0-0-0-0-0-0-0-|-0-0-0-0-0-0-0-0-0-0-0-0-0-0-0-0---|
|-----------------|---------------------------------|-----------------------------------|

     PM-----|   PM-| PM---------------------------------------------|
||------------------------------------------------------------------|
||------------------------------------------------------------------|
||o-------------------------------------------------------------o---|
||o-2---------2-----2-------------3/--10------10----10----2-0---o---|
||--0-0-0-0-0-0-0-0-0-0-0-0-2-3--------8-8-8-8-8-8-8-8-8\-----3-----|
||------------------------------1-----------------------------------|

                         PM  PM
|-------------------------------------------|
|----3----------------------5---------------|
|----0—-/x\-----------------4---------------|
|----0—-/x\-----------------2---------------|
|----2------------------2---2---3---5-------|
|-3--3------h13\-3-5-7--0-0-0-0-1---3-3s15\-|

   PM-----------------------------------|  PM----------------------------------------|
||---------------------------------------||------------------------------------------|
||---------------------------------------||------------------------------------------|
||o-------------------------------------o||------------------------------------------|
||o-------------------------------------o||------------------------------------------|
||--7-------------7-------------7h8p7----||-7-------------7-------------7------------|
||----10-8-7-8-10---10-8-7-8-10-------10-||---10-8-7-8-10---10-8-7-8-10---10-8-7-5---|

rhythm guitar                 1.     2.
||----------------------------|----||----|
||----------------------------|----||----|
||o---------------------------|---o||----|
||o--------------2------------|-2-o||----|
||--10--9\--5-3--0--------5-3-|-0--||----|
||------------------3--2------|----||----|

             ~~                   ~~~                ~~                 ~~~
|--17b20r-17-----15---------------------------------------------------------------|
|-(17)--------------17-16-15------------------------------------------------------|
|----------------------------17b19---14\----14b17r-14---12------------------------|
|----------------------------------------------------------14-13-12---------------|
|-----------------------------------------0-------------------------15b17---12\-0-|
|---------------------------------------------------------------------------------|

             ~~                   ~~~                ~~                 ~~
|--17b20r-17-----15----------------------------------------------------------|
|-(17)--------------17-16-15-------------------------------------------------|
|----------------------------17b19---14\----14b17r-14---12-------------------|
|----------------------------------------------------------14-13-12----------|
|-----------------------------------------0-------------------------15b17==\-|
|----------------------------------------------------------------------------|

                                ~                                   Flanger
|--------------------------------|-------------------------------------------------|
|--------------------------------|-------------------------------------------------|
|--------------------------5-7-5-|--------------------------5-7-5\-----------------|
|--------------------------5-7-5-|--------------------------5-7-5\--xxxxxxxxxxxxxx-|
|-0-0-0-0-0-0-0-0-0-0-0-0--------|-0-0-0-0-0-0-0-0-0-0-0-0----------xxxxxxxxxxxxxx-|
|--------------------------------|----------------------------------xxxxxxxxxxxxxx-|

    PM--|       PM  PM  PM                                 PM--------|
|--------------------------------------------------------------------|
|--------------------------------------------------------------------|
|---------2-4-5---------------10--[9]h10p9p7-------------------------|
|-------2---------7---9----10----------------10-9-7------------------|
|-0-2-3---------5---7---8---------------------------10-8-7-----------|
|----------------------------------------------------------10-8-7----|

 PM------|  PM----|   PM                                     PM-----------------------|
|-------------------7---10--13-12-10--------------------------------------------------|
|------------------------------------13-12-10-----------------------------------------|
|----------7---10-7---10----------------------10-9-7----------------------------------|
|------9-----9---------------------------------------10-9-7---------------------------|
|-8------8--------------------------------------------------8-7-5-------11-8-7--------|
|---10------------------------------------------------------------8-7-5--------10-8-7-|

 PM-----|                                                    PM--------|
|----------------------------------------------------------------------|
|----------------------------------------------------------------------|
|---------2-4-5-----------------10--[9]h10p9p7-------------------------|
|-------2-----------7---9----10----------------10-9-7------------------|
|-0-2-3---------[5]---7---8---------------------------10-8-7-----------|
|------------------------------------------------------------10-8-7----|

 PM-------| PM----|   PM   PM---------------------------------------------|
|-------------------7---10-------------------------------------10-12-13---|
|-----------------------------------------------------10-12-13------------|
|----------7---10-7--/10-----------------------7-9-10---------------------|
|------9-----9--------------------------7-9-10----------------------------|
|-8------8------------------------5-7-8-----------------------------------|
|---10----------------------5-7-8-----------------------------------------|

 PM--------------------|
|----------------------|
|----------------------|
|----------------------|
|----------10-12-14----|
|-11-12-14-------------|
|----------------------|

|-------------10-12-13-12h13p12p10---------------|-------5h7-8p7h8p7p5-------------|
|------------------------------------------------|---------------------------------|
|----10h12h14----------------------14-12-10------|-5h7h9---------------9-7-5-------|
|-12----------------------------------------12s7-|---------------------------7-----|
|------------------------------------------------|-----------------------------7s8-|
|------------------------------------------------|---------------------------------|

                                             ~
|-----------------------------------17b19-17--|
|--------6h8-10p8h10p8p6----------------------|
|---------------------------------------------|
|-7h9h10------------------10-9-7---([7])------|
|---------------------------------------------|
|---------------------------------------------|


|---3-------------------------------------------------------------------|
|---3-------------------------------------------------------------------|
|---0—4s17-19-17-16-14--17-16-14-12--16-14-12—10--14-12-10-9--12-10-9-7-|
|---0-------------------------------------------------------------------|
|---0-------------------------------------------------------------------|
|-0-3-------------------------------------------------------------------|

                                       ~~                             ~~~   ~~
|----------------------------------------------------------------------------------|
|----------------------------------------------------------------------------------|
|-10-9-7-5-—9-7-5-4-—7-5-3-2--5-4-2p0----------------------------------------------|
|--------------------------------------2---0h2p0h2p0h2p0h2p0h2p0h2p0------------2/-|
|--------------------------------------------------------------------3-------------|
|-------------------------------------------------------------------------/[7]-----|

   PM----------------------------------|
||-------------------------------------|
||-------------------------------------|
||o-9-7------9-7-------10-10-10-10-o---|
||o-----10-7-----10-7--------------o---|
||-------------------------------------|
||-------------------------------------|

 PM-----------------------------------------------------------------------------|
|-------------------------------|-----------------------------------------------|
|-------------------------------|-----------------------------------------------|
|-9-7------9-7------10-10-10-10-|-9-7-------------------------------------------|
|-----10-7-----10-7-------------|-----10-9-7------------------xxxxxxxxx-12s14---|
|-------------------------------|------------10-8-7-----------xxxxxxxxx---------|
|-------------------------------|-------------------10-8-7-8--xxxxxxxxx---------|

  PM-----------------------------------------------------|
|--------------------------------------------------------|
|-13------12------10-----9-----6-----5-----3-----1-------|
|----13------10------9-----7-----5-----4-----2-----1-1---|
|-------12------10-----9-----7-----6-----3-----2---------|
|--------------------------------------------------------|
|--------------------------------------------------------|

 PM---------------------------------------------------|
|-----------------------------------------------------|
|-5------3-----6-----5-----9-----6-----10-----9-------|
|---4------2-2---5-----4-4---7-----5-5----9-----7-9---|
|-----3------------6-----------7------------9---------|
|-----------------------------------------------------|
|-----------------------------------------------------|

  PM-----------------------------------------------------|
|--------------------------------------------------------|
|-13------12------10-----9-----6-----5-----3-----1-------|
|----13------10------9-----7-----5-----4-----2-----1-----|
|-------12------10-----9-----7-----6-----3-----2-----3---|
|--------------------------------------------------------|
|--------------------------------------------------------|

 PM-------------------------|      ~~~---|
|----------------------------------------|
|-3------6----10-------13----15b18-------|
|---2/-----5-----9--------13-------------|
|------7-----------/14-------------------|
|----------------------------------------|
|----------------------------------------|

SOLO
Rhythm guitar
|-----------|-----------|------------------|----------|----------|--------------------|
|-----------|-----------|------------------|----------|----------|--------------------|
|-----------|-----------|------------------|----------|----------|--------------------|
|-11---7/-9-|-11---7--6-|-4---6---4---2----|----7/-9--|-11--7--6-|-4--6--4--9-9-9-9-9-|
|--9---5/-7-|--9---5--4-|-2---4---2---0--6-|-4--5/-7--|--9--5--4-|-2--4--2--7-7-7-7-7-|
|-----------|-----------|----------------4-|-2--------|----------|--------------------|

           ~~                   ~~           ~
|-------------16-17----------------/21-20-21=s9/---------------------------17-19-21-|
|-17b19=19--x-------15-17b19r-17----------------------------------17-19-21----------|
|-----------x--------------------------------------------16-18-19-------------------|
|------------------------------------------------16-18-19---------------------------|
|-----------------------------------------------------------------------------------|
|-----------------------------------------------------------------------------------|

                        ~~
|-21pb22-19b21r19-19b20r==\x/-19----------------19----------------|
|--------------------------------22-21-19-21-22----22-21-19-21-22-|
|-----------------------------------------------------------------|
|-----------------------------------------------------------------|
|-----------------------------------------------------------------|
|-----------------------------------------------------------------|

|-21----------------21----------------21----------------21-------------|
|----24-22-21-22-24----24-22-21-22-24----24-22-21-22-24----24-22-21-22-|
|----------------------------------------------------------------------|
|----------------------------------------------------------------------|
|----------------------------------------------------------------------|
|----------------------------------------------------------------------|

|-19----------------19----------------19----------------19----------------|
|----22-21-19-21-22----22-21-19-21-22----22-21-19-21-22----22-21-19-21-22-|
|-------------------------------------------------------------------------|
|-------------------------------------------------------------------------|
|-------------------------------------------------------------------------|
|-------------------------------------------------------------------------|

|-17----------------17----------------16----------------16----------------|
|----21-19-17-19-21----21-19-17-19-21----19-17-15-17-19----19-17-15-17-19-|
|-------------------------------------------------------------------------|
|-------------------------------------------------------------------------|
|-------------------------------------------------------------------------|
|-------------------------------------------------------------------------|

|-17----------------17-19-21-19-17----------------17----------------|
|----21-19-17-19-21----------------21-19-17-19-21----21-19-17-19-21-|
|-------------------------------------------------------------------|
|-------------------------------------------------------------------|
|-------------------------------------------------------------------|
|-------------------------------------------------------------------|

|-17-21-17-19-21-19-17----17----------------17-19-21-19-17----------------|
|----------------------19----21-19-17-19-21----------------21-19-17-19-21-|
|-------------------------------------------------------------------------|
|-------------------------------------------------------------------------|
|-------------------------------------------------------------------------|
|-------------------------------------------------------------------------|

|-17----------------17-19-21-19-17----------------------------------|
|----21-19-17-19-21----------------21-19-17-------------------------|
|-------------------------------------------19-18-16----------------|
|----------------------------------------------------19-18-16-18-19-|
|-------------------------------------------------------------------|
|-------------------------------------------------------------------|

                                                          ~~
|-------------------17-------------------17-20-20-22trb26r---24b26-|
|----------17-19-21----21-19-17-19-21-22---------------------------|
|-16-18-20---------------------------------------------------------|
|------------------------------------------------------------------|
|------------------------------------------------------------------|
|------------------------------------------------------------------|

                      ~~
|-24b26-24-22-21-22-19---[21]h22p22p19----19-21-22-21h22p21p19----19-----|
|--------------------------------------22----------------------22----22--|
|------------------------------------------------------------------------|
|------------------------------------------------------------------------|
|------------------------------------------------------------------------|
|------------------------------------------------------------------------|

                          \1/1.5\1.5/1.5\
|----19-----------------------------------17-14h17p14---------------------------------|
|-20----22-20-19-20-22--------------------------------14-19---------------------------|
|----------------------18-----------------------------------16-14-16-16pb18r-14-16----|
|-------------------------------------------------------------------------------------|
|-------------------------------------------------------------------------------------|
|-------------------------------------------------------------------------------------|

                                    \1/
|---------------------------------------|
|---------------------------------------|
|-14h16p14-13h14-13h14-13h14-[14]b17----|
|---------------------------------------|
|---------------------------------------|
|---------------------------------------|

rhythm guitar                 1.     2.
||----------------------------|----||----|
||----------------------------|----||----|
||o---------------------------|---o||----|
||o--------------2------------|-2-o||----|
||--10--9\--5-3--0--------5-3-|-0--||----|
||------------------3--2------|----||----|

             ~~                   ~~~                ~~                 ~~~    ///
|--17b20r-17-----15--------------------------------------------------------------|
|-(17)--------------17-16-15-----------------------------------------------------|
|----------------------------17b19---14\----14b17r-14---12-----------------------|
|----------------------------------------------------------14-13-12--------------|
|-----------------------------------------0-------------------------15b17----12--|
|--------------------------------------------------------------------------------|

             ~~                   ~~~    \1/2\1/2          ~~                 ~~
|--17b20r-17-----15----------------------------------------------------------------|
|-(17)--------------17-16-15-------------------------------------------------------|
|----------------------------17b19---[14]---------14b17r-14---12-------------------|
|----------------------------------------------------------------14-13-12----------|
|-------------------------------------------------------------------------15b17==\-|
|----------------------------------------------------------------------------------|


                                ~                                \1/1\1   Flanger
|--------------------------------|----------------------------------------------------|
|--------------------------------|----------------------------------------------------|
|--------------------------5-7-5-|--------------------------5-7-5---------------------|
|--------------------------5-7-5-|--------------------------5-7-5---xxxxxxxxxxxxxxxxxx|
|-0-0-0-0-0-0-0-0-0-0-0-0--------|-0-0-0-0-0-0-0-0-0-0-0-0----------xxxxxxxxxxxxxxxxxx|
|--------------------------------|----------------------------------xxxxxxxxxxxxxxxxxx|

 PM----|       PM  PM  PM                  PM----|        PM--------|
|-------------------------------------------------------------------|
|-------------------------------------------------------------------|
|---------2-4-5---------------10---9h10p9p7-------------------------|
|-------2---------7---9----10---------------10-9-7------------------|
|-0-2-3---------5---7---8--------------------------10-8-7-----------|
|---------------------------------------------------------10-8-7----|

    PM-|     PM
|-------------------7---10-13-12-10----------16-13-12----------17-16-13----------17b20|
|-----------------------------------13-12-10----------15-13-12----------17-15-13------|
|----------7---10-7--/10--------------------------------------------------------------|
|------9-----9------------------------------------------------------------------------|
|-8------8----------------------------------------------------------------------------|
|---10--------------------------------------------------------------------------------|

 PM----|         PM PM  PM                   PM----|      PM---------|
|--------------------------------------------------------------------|
|--------------------------------------------------------------------|
|---------2-4-5----------------10---9h10p9p7-------------------------|
|-------2----------7---9----10---------------10-9-7------------------|
|-0-2-3----------5---7---8--------------------------10-8-7-----------|
|----------------------------------------------------------10-8-7----|

    PM---|   PM-------------|
|-------------------7-------|
|---------------------------|
|----------7---10-7---10/---|
|------9-----9--------------|
|-8------8------------------|
|---10----------------------|

                                         T           T
|-16p13p10----------------------10h13h16h19p16p13p10-19/p16p13p10p0-|
|-------------------------------------------------------------------|
|----------16p13p10----10h13h16-------------------------------------|
|-------------------------------------------------------------------|
|--------------------14---------------------------------------------|
|-------------------------------------------------------------------|

|--------------10h12-13p12h13p12p10---------------|-------5-7-8-7h8p7p5-------------|
|-------------------------------------------------|---------------------------------|
|-----10h12h14----------------------14-12-10------|-5h7h9---------------9-7-5-------|
|-/12----------------------------------------12s7-|---------------------------7-----|
|-------------------------------------------------|-----------------------------7s8-|
|-------------------------------------------------|---------------------------------|

                                                ~
|---------------------------------17b19---17b19r==\|
|--------6h8-10p8h10p8p6---------(17)--------------|
|--------------------------------------------------|
|-7h9h10------------------10-9-7-------------------|
|--------------------------------------------------|
|--------------------------------------------------|

       PM------------------------------------------------------------------|
|--3------------------------------------------------------17-19/20-22tr\---|
|--3---------------------------------------------17-18-20------------------|
|--0—--------------------------------14-16-17-20---------------------------|
|--0---------------------12-14-15-17---------------------------------------|
|--0------------12-14-15---------------------------------------------------|
|--3--19\-12-15------------------------------------------------------------|

    ~~                              ~~~   ~~
|-----------------------------------------------|
|-----------------------------------------------|
|-----------------------------------------------|
|-2---0h2p0h2p0h2p0h2p0h2p0h2p0--------------2/-|
|-------------------------------[3]-------------|
|--------------------------------------/[7]\----|

   PM----------------------------------|
||-------------------------------------|
||-------------------------------------|
||o-9-7------9-7-------10-10-10-10-o---|
||o-----10-7-----10-7--------------o---|
||-------------------------------------|
||-------------------------------------|

 PM-------------------------------------------------------------|
|-------------------------------|-------------------------------|
|-------------------------------|-------------------------------|
|-9-7------9-7------10-10-10-10-|-9-7---------------------------|
|-----10-7-----10-7-------------|-----10-9-7--------------------|
|-------------------------------|------------10-8-7-------------|
|-------------------------------|-------------------10-8-7-8/---|


||--12-10-------12-10-------13-13-13-13--||
||--------13-10-------13-10--------------||
||o-------------------------------------o||
||o-------------------------------------o||
||---------------------------------------||
||---------------------------------------||

|-12-12-12-12-15-15-15-15-13-13-13-13-17-17-17-17-15-15-15-15-19-19-19-19-|
|-------------------------------------------------------------------------|
|-------------------------------------------------------------------------|
|-------------------------------------------------------------------------|
|-------------------------------------------------------------------------|
|-------------------------------------------------------------------------|

|-17-17-17-17-20-20-20-20-22\-|
|-----------------------------|
|-----------------------------|
|-----------------------------|
|-----------------------------|
|-----------------------------|

outro

||-----------------------------------------------------------------------||
||-----------------------------------------------------------------------||
||o---------------------------------------------------------------------o||
||o-2------------------------------10-10-10-10-10-10-10-10-10-10--2-0---o||
||--0-0-0-0-0-0-0-0-0-0-0-0-2-3-----8--8-—8-—8-—8--8--8—-8--8--8------3--||
||------------------------------1----------------------------------------||

                       PM  PM
|----------------------------------------|
|-----3------------------5---------------|
|-----0—-----------------4---------------|
|-----0—-----------------2---------------|
|-----2--------------2---2---3---5-------|
|--3--3--x\---3-5-7--0-0-0-0-1---3-3s15\-|

   PM-----------------------------------|  PM-----------------------------------------|
||---------------------------------------||-------------------------------------------|
||---------------------------------------||-------------------------------------------|
||o-------------------------------------o||-------------------------------------------|
||o-------------------------------------o||-------------------------------------------|
||--7-------------7-------------7h8p7----||-7-------------7-------------7-------------|
||----10-8-7-8-10---10-8-7-8-10-------10-||---10-8-7-8-10---10-8-7-8-10---10-8-7-5\---|
comments
print report bad tab
5 comments total. Showing first comments.
0 reply
Max la menace wrote on June 13 2007, 09:55 am

the tab was transformed at some places. But the tab is almost perfect except for some palm muting and repeat bars: o|| and not o----|

0 reply
Max la menace wrote on June 19 2007, 09:57 pm

I did a mistake at the end, you remove the 17 and you put the 16

T 16 T
|-17p13-------------------------10h13h16h19p17p13p10-19/p16p13p10p0-|
|-------15----------------------------------------------------------|
|----------16p12p10----10h13h16-------------------------------------|
|-------------------------------------------------------------------|
|--------------------14---------------------------------------------|
|-------------------------------------------------------------------|

0 reply
Max la menace wrote on June 19 2007, 10:01 pm

not that 17 ( when I post my message, the T 16 T move, it's the 17 in the legato, after the 19 it's suppose to be a 16
16h19p16p13p10

I want to post or [tab]
guest
You may want to rate the tab now too:
select rating
Please do not post tabs as comments. Select "correction" instead!