Oops, an error
Loading. Please wait.

Scarified Live Tab

14,653 views 9 this week
6 commentsread comments
1 2 3 4 5
excellent!
x 12
Autoscroll
+/-
esc
set tempo
stop
Contributor
Hey! There's an official Ultimate Guitar app which is ideal
for learning songs when you're away from computer. Get the app
WARNING: You are trying to view
                                    content from Ultimate-Guitar.com
                                    in an unauthorized application,
                                    which is prohibited.

                                    Please use an official Ultimate
                                    Guitar Tabs application for iPhone,
                                    iPad or Android to access legitimate
                                    chords, guitar, bass, and drum tabs
                                    from Ultimate-Guitar.com database.

                                    Type "ultimate guitar tabs" in Apple
                                    App Store's or Android Market's
                                    search to find the application.
-------------------------------------------------------------------------------------
                               "Scarified" live --- Paul Gilbert
-------------------------------------------------------------------------------------

Tabbed By: [travis]




*This is from the Youtube video of Paul Gilbert in the studio, in
 his orange outfit. It's basically the vid with the most views (2 million)

*For the palm muted hammer ons, just lightly palm mute, meaning lightly 
 place your palm on the strings. If you palm mute too heavily, than you
 won't get a great sound out of it.



Key: C Major (C D E F G A B)




Legend:

... = palm mute
h = hammer on
p = pull off
b = bend
___ = hold bend
T = tap
" = harmonic
/ = slide up
\ = slide down
x = muffled string
~ = vibrato
1 = whole step bend
.5 = half step bend
.75 = three fourth bend
1.5 = whole step and a half bend
* = pinch harmonic
x/x/ = pick slide
() = note not picked/ bent note brought back to normal
h/ = pick once
p\ = pick once
h/p\ = pick once





Guitar 1:
         [---------------x3--------------]
e|------|---------------------------------|
B|------|---------------------------------|
G|------|---------------------------------|
D|------|---------------------------------|
A|------|---------------------------------|
E|-15p\-|-2-2-2-2-2-2-2-2-2-2-2-2-2-2-2-2-|
          ...............................

Guitar 1:
e|--------------------------------------------------------------------------------------|
B|--------------------------------------------------------------------------------------|
G|--------------------------------------------------------------------------------------|
D|--------------------------------------------------------------------4-----------6h7p6-|
A|----------------------------4-----------4h5p4---4-7-5h7p5p4---4h5h7---7-5-4-5-8-------|
E|-2-2-2-2-2-2-2-2-2-2-/4h5h7---7-5-4-5-7-------7-------------7-------------------------|
   ..................................................         .       ...........

Guitar 1:
e|------------------------------------------------------------------------9---------------|
B|----------------------------------------------------------------9h10h12---12-10-9-10-12-|
G|-----------------------6-----------6h7p6---6-9-7h9p7p6---6h9h11-------------------------|
D|---6-9-7h9p7p6---6h7h9---9-7-6-7-9-------9-------------9--------------------------------|
A|-9-------------9------------------------------------------------------------------------|
E|----------------------------------------------------------------------------------------|
   ...           .         .........       .             .        

Guitar 1:
                                    1_____________
e|-9h10p9----9-12-10h12p10p9----9-12b~~~~~~~~~~~~~-------|
B|--------12-----------------12--------------------------|
G|-------------------------------------------------------|
D|------------------------------------------------x/x/x/-|
A|------------------------------------------------x/x/x/-|
E|-------------------------------------------------------|

Guitar 1:
e|-------------------------------|
B|-------------------------------|
G|-------------------------------|
D|-------------------------------|
A|-3"----------------------------|
E|--------------------------17p\-|

===========================================================
Guitar 1:
e|------------------------------------------------------------------|
B|------------------------------------------------------------------|
G|-----------------------------------------------------------6~~~~~-|
D|-----------------------------------------------------6-7-9--------|
A|----------------------------4------------------5-7-9--------------|
E|-2-2-2-2-2-2-2-2-2-2-/4-5-7----2----2h/4-5-7-9--------------------|
   ..........................         ......................

Guitar 1:
e|-----------------------------------------------------------------|
B|-----------------------------------------------------------------|
G|-----------------------------------------7-6-4-------------------|
D|-----------------------------------------------7-6-4-------------|
A|----------------------------4------------------------7-5-4-------|
E|-2-2-2-2-2-2-2-2-2-2-/4-5-7----2----2h/4-------------------7-5-4-|
   ..........................         ............................

Guitar 1:
e|-----------------------------------------------------------------------|
B|-----------------------------------------------------------------------|
G|-----------------------------------------------------------6~~~~~~~~~~~|
D|-----------------------------------------------------6-7-9-------------|
A|----------------------------4------------------5-7-9-------------------|
E|-2-2-2-2-2-2-2-2-2-2-/4-5-7----2----2h/4-5-7-9-------------------------|
   ..........................         .......................

Guitar 1:
e|----------------------------------------------------------------|
B|----------------------------------------------------------------|
G|---------------------------------------------------------9~~~~~-|
D|-------------------------------------------------9-11-12-9~~~~~-|
A|----------------------------4---------/7-9-11-12----------------|
E|-2-2-2-2-2-2-2-2-2-2-/4-5-7----2----2---------------------------|
   ..........................         ....................


Play those 4 bars Twice (2x) in all.
===============================================================
Guitar 1: Paul Gilbert String Skipping Arpeggios.
                                                                                    1____________
e|-14p10------------10-------11h14p11-----16p12------------12-------13h16p13---------------------|
B|--------------------------------------------------------------------------------17b~~~~~~~~~~~~|
G|------14p11--11h14----11h14--------14p11-----16p13--13h16----13h16--------16p13----------------|
D|-----------12-------13----------------------------14-------15----------------------------------|
A|-----------------------------------------------------------------------------------------------|
E|-----------------------------------------------------------------------------------------------|

Guitar 1:
e|--------------------------------14--------------------19p14--------15--19---------------------|
B|---------------19p14--------15---------19p15--15h19p15-----15h17h19--19--19p15----------------|
G|18p14--14-18p14-----14h16h18--18--18p14-----18--------------------------------16p13--13h16p13-|
D|-----18----------------------------------------------------------------------------16---------|
A|----------------------------------------------------------------------------------------------|
E|----------------------------------------------------------------------------------------------|

Guitar 1:
e|------16-14-16-12--12--------------------------21-19-21-17--17--------------------------14-12-14|
B|-17p12------------------------------------22p17------------------------------------15p10--------|
G|-----------------16--16-13-21p18--18h21p18----------------21--21-18-14p11--11h14p11-------------|
D|--------------------------------21---------------------------------------14---------------------|
A|------------------------------------------------------------------------------------------------|
E|------------------------------------------------------------------------------------------------|

Guitar 1:
e|10--10---------------------------19-17-19-14--14-------------------------13-11-13-9--9------|
B|----------------------------19-15------------------------------------14p9-------------------|
G|--14--14-11-/19p16--16h19p16----------------19--19----13p10--10h13p10--------------13-13-10-|
D|------------------18------------------------------16p\-----13-------------------------------|
A|--------------------------------------------------------------------------------------------|
E|--------------------------------------------------------------------------------------------|

Guitar 1:
e|----------------14p10-17-16-14-------------------------------------13-11-13-9--9------|
B|-14p10--10h14p10---------------17-15-14------------------------14p9-------------------|
G|------13--------------------------------16-14p\-13p10--10h13p10--------------13-13-10-|
D|-----------------------------------------------------13-------------------------------|
A|--------------------------------------------------------------------------------------|
E|--------------------------------------------------------------------------------------|

Guitar 1:
e|----------------14p10-17p16p14---------17p\13h/17--|
B|-14p10--10h14p10--------------17-15-14-------------|
G|------13-------------------------------------------|
D|---------------------------------------------------|
A|---------------------------------------------------|
E|---------------------------------------------------|

=================================================================
Cool Guitar and Bass Duel.

Guitar 1:
  T        T       T        T       T        T       T        T       T        T       
e|--------------------------------------------------------------------------------------|
B|--------------------------------------------------------------------------------------|
G|-----------------18p16h18-19p18p16-----------------16p14h16-18p16p14------------------|
D|18p16h18-19p18p16-----------------16p14h16-18p16p14-----------------14p12h14-16p14p12-|
A|--------------------------------------------------------------------------------------|
E|--------------------------------------------------------------------------------------|

Guitar 1:
   T        T        T        T        T
e|------------------------------------------------|
B|------------------------------------------------|
G|-14p13h14-16p14p13-16p14h16-18p16p14-19p16h19~~~|
D|------------------------------------------------|
A|------------------------------------------------|
E|------------------------------------------------|

=================================================================
Guitar 1:
e|------------------------------------------------------------------|
B|------------------------------------------------------------------|
G|-----------------------------------------------------------6~~~~~-|
D|-----------------------------------------------------6-7-9--------|
A|----------------------------4------------------5-7-9--------------|
E|-2-2-2-2-2-2-2-2-2-2-/4-5-7----2----2h/4-5-7-9--------------------|
   ..........................         ......................

Guitar 1:
e|-----------------------------------------------------------------|
B|-----------------------------------------------------------------|
G|-----------------------------------------7-6-4-------------------|
D|-----------------------------------------------7-6-4-------------|
A|----------------------------4------------------------7-5-4-------|
E|-2-2-2-2-2-2-2-2-2-2-/4-5-7----2----2h/4-------------------7-5-4-|
   ..........................         ............................

Guitar 1:
e|-----------------------------------------------------------------------|
B|-----------------------------------------------------------------------|
G|-----------------------------------------------------------6~~~~~~~~~~~|
D|-----------------------------------------------------6-7-9-------------|
A|----------------------------4------------------5-7-9-------------------|
E|-2-2-2-2-2-2-2-2-2-2-/4-5-7----2----2h/4-5-7-9-------------------------|
   ..........................         .......................

Guitar 1:
e|----------------------------------------------------------------|
B|----------------------------------------------------------------|
G|---------------------------------------------------------9~~~~~-|
D|-------------------------------------------------9-11-12-9~~~~~-|
A|----------------------------4---------/7-9-11-12----------------|
E|-2-2-2-2-2-2-2-2-2-2-/4-5-7----2----2---------------------------|
   ..........................         ....................


==========================================================================
Guitar 1:
                                                                                  .75_________1__
e|-14p10------------10-------11h14p11-----16p12------------12-------13h16p13---------------------|
B|--------------------------------------------------------------------------------17b~17~17~17b~~|
G|------14p11--11h14----11h14--------14p11-----16p13--13h16----13h16--------16p13----------------|
D|-----------12-------13----------------------------14-------15----------------------------------|
A|-----------------------------------------------------------------------------------------------|
E|-----------------------------------------------------------------------------------------------|

Guitar 1:
e|------16-14-16-12--12--------------------------21-19-21-17--17--------------------------14-12-14|
B|-17p12------------------------------------22p17------------------------------------15p10--------|
G|-----------------16--16-13-21p18--18h21p18----------------21--21-18-14p11--11h14p11-------------|
D|--------------------------------21---------------------------------------14---------------------|
A|------------------------------------------------------------------------------------------------|
E|------------------------------------------------------------------------------------------------|

Guitar 1:
e|10--10---------------------------19-17-19-14--14-------------------------13-11-13-9--9------|
B|----------------------------19-15------------------------------------14p9-------------------|
G|--14--14-11-/19p16--16h19p16----------------19--19----13p10--10h13p10--------------13-13-10-|
D|------------------18------------------------------16p\-----13-------------------------------|
A|--------------------------------------------------------------------------------------------|
E|--------------------------------------------------------------------------------------------|


Guitar 1:
e|-10---------------------------19-17-19-14--14-------------------------13-11-13-9--9------|
B|-------------------------19-15------------------------------------14p9-------------------|
G|---14-11-/19p16--16h19p16----------------19--19----13p10--10h13p10--------------13-13-10-|
D|---------------18------------------------------16p\-----13-------------------------------|
A|-----------------------------------------------------------------------------------------|
E|-----------------------------------------------------------------------------------------|

Guitar 1:
e|----------------14p10-17-16-14------------------|
B|-14p10--10h14p10---------------17-15-14---------|
G|------13--------------------------------16-14p\-|
D|------------------------------------------------|
A|------------------------------------------------|
E|------------------------------------------------|


==============================================================================
Guitar 1:
e|---------------------15-13-15-11--11--------------------16p12-19-18-16--------------------------|
B|----------------16p11--------------------16p12--12h16p12--------------19-17-16------------------|
G|-15p12--12h15p12----------------15--15-12-----15------------------------------18-16-15~~16---18-|
D|------15----------------------------------------------------------------------------------------|
A|------------------------------------------------------------------------------------------------|
E|------------------------------------------------------------------------------------------------|

Guitar 1:
    .5          .5_____________________                                   .5          1   1   1
e|-------------18b~~~~~~~~~18~~~~~18--(18)----16----18----19----18p16----18b--18-16-19b-19b-19b-|
B|-16b-------------------------------------17----17----17----17-------17------------------------|
G|----------------------------------------------------------------------------------------------|
D|----------------------------------------------------------------------------------------------|
A|----------------------------------------------------------------------------------------------|
E|-----0-0-0-0----------------------------------------------------------------------------------|
       .......

Guitar 1:
                                                                            1  1 .25 
e|-19~~~~~~~~-\4h7---4---------------------------------------------------------------------|
B|-----------------7---4h7---4-------------------------------------------------------------|
G|-------------------------6---4h6---4-------------------------------4---4-6b-6b-4b--------|
D|---------------------------------6---4h6---4-------------------4-6---6------------6*~~~~~|
A|-----------------------------------------6---4h6---4-------4h6---------------------------|
E|-------------------------------------------------7---7-4h7-------------------------------|

Guitar 1:
e|-----------------------------------------------------------------------------|
B|-----------------------------------------------------------------------------|
G|------------------------------------16-15-15h16------------------------------|
D|-----------------8-----9~~~~~--9\---14-14-14--------------------8---9~~~~~~~-|
A|-----------------7-----7~~~~~-----------------------------------7---7~~~~~~~-|
E|-x-0-0-0-0-0-0-0---0-0--------------------------0-0-0-0-0-0-0-0---0----------|
                     ...                          ...............   .

Guitar 1:
                                                                 1         1        .5
e|-----------------------------------------------------------------------14b-14----18b~~|
B|------------------------------------------------------------------------------16------|
G|-----------------------------------15-16-15h16p15---15-16-18-18b-18-16----------------|
D|--------------------------18----18---------------18-----------------------------------|
A|-x--4h/6--6---------18-------18-------------------------------------------------------|
E|-x--2h/4--4--/15-16----16-------------------------------------------------------------|

Guitar 1:
           1___
e|-18-16-------------------------------------------------------------------------------------------|
B|-------19b~~(19)\--------------------------------------------------------------------------------|
G|--------------------------------------------------------------11----------------13-------------13|
D|--------------------------11-------------11-13-11-11-11-12-14----14-13-13-14-16----16-14-14-16---|
A|-----------------11-13-14----14-13-13-14---------------------------------------------------------|
E|-------------------------------------------------------------------------------------------------|
                   ................................................................................

Guitar 1:
e|-------------------------------------------------------------------|
B|-------------------------------------------------------------------|
G|-15-13----------13-15-13-15-13----------13-15-13-15-13----------13-|
D|-------16-14-16----------------16-14-16----------------16-14-16----| x2
A|-------------------------------------------------------------------|
E|-------------------------------------------------------------------|
   .................................................................

Guitar 1:
e|------------------------------------------------------------|
B|------------------------------------------------------------|
G|-15-13----------13-15-13-15-13----------13-15----15p\-------|
D|-------16-14-16----------------16-14-16-------13------------|
A|------------------------------------------------------------|
E|------------------------------------------------------------|
   ...............................................

=====================================================================
Guitar 1:
e|-----------16h18p16--16-19-18h19p18p16--16------------------------16---------------|
B|-x-16h17h19--------19-----------------19--19-17h19p17p16--16h17h19--19-17h19p17p16-|
G|-x------------------------------------------------------18-------------------------|
D|-x---------------------------------------------------------------------------------|
A|-----------------------------------------------------------------------------------|
E|-----------------------------------------------------------------------------------|

Guitar 1:
          .5  .5   1____
e|---------------------------|
B|----19-19b-19b-19b~~~~-----|
G|-18------------------------|
D|---------------------------|
A|---------------------------|
E|----------------------18p\-|

======================================================================

Guitar 1:


e|------------------------------------------------------------------|
B|------------------------------------------------------------------|
G|-----------------------------------------------------------6~~~~~~|
D|-----------------------------------------------------6-7-9--------|
A|----------------------------4------------------5-7-9--------------|
E|-2-2-2-2-2-2-2-2-2-2-/4-5-7----2----2h/4-5-7-9--------------------|
   ..........................         ......................

Guitar 1:
e|--------------------------------------------------------------|
B|--------------------------------------------------------------|
G|-----------------------------------------7-6-4----------------|
D|-----------------------------------------------7-6-4----------|
A|----------------------------4------------------------7-5-4~~~~|
E|-2-2-2-2-2-2-2-2-2-2-/4-5-7----2----2h/4----------------------|
   ..........................         ....................

=======================================================================
Guitar 1:
e|-------------------9h12p9h12p9--9-14p12h14p12p9---|
B|-14-----------------------------------------------|
G|---14p11------11h14-----------14---------------14-|
D|--------14--14------------------------------------| x2
A|----------12--------------------------------------|
E|--------------------------------------------------|

Guitar 1:
e|-------------------9h12p9h12p9----15-12h15p12------12----------------12h15-12h15p12--12-|
B|-14-----------------------------14-----------h14-14--------------------------------13---|
G|---15p12------12h15-----------15---------------------18p15------15h18-------------------|
D|--------14--14--------------------------------------------17--17------------------------|
A|----------13------------------------------------------------16--------------------------|
E|----------------------------------------------------------------------------------------|

Guitar 1:
e|-18-15h18p14p12-11----------------11-14-11h14p11--11-16-14h16p14p11---|
B|------------------------------------------------12-----------------12-|
G|------------------16p13------13h16------------------------------------|
D|-----------------------16--16-----------------------------------------| x2
A|-------------------------14-------------------------------------------|
E|----------------------------------------------------------------------|

Guitar 1:
e|-11----------------10-13-10h13p10--10-16-13h16p13p10-10-13----------------13-16-13h16p13---|
B|---------------------------------12--------------------------------------------------------|
G|---16p13------13h16---------------------------------------19p16------16h19--------------19-|
D|--------15--15-------------------------------------------------18--18----------------------|
A|----------14-----------------------------------------------------17------------------------|
E|-------------------------------------------------------------------------------------------|

Guitar 1:
e|-13----------------13-16-13h16p13--13-19p\-|
B|-------------------------------------------|
G|---19p16------16h19--------------19--------|
D|--------18--18-----------------------------|
A|----------17-------------------------------|
E|-------------------------------------------|

Guitar 1:
e|---------------------------------------------------------------------|
B|---------------------------------------------------------------------|
G|----------------------------------------------------------------16p\-|
D|----------16----------15-16-18-16-15----16-17-19-17-16-16-18-19------|
A|-16-18-19----19-18-18----------------19------------------------------|
E|---------------------------------------------------------------------|
   ..............................................................

============================================================
Ending:

Guitar 1:
e|-------------------16b---16p14----17----16p14----14-----------------|
B|-3~~~~~~~~~--------------------15----15-------15----15--------------|
G|-2~~~~~~~~~---x-x--------------------------------------14p13~~~~~~~~|
D|-0~~~~~~~~~---x-x---------------------------------------------------|
A|-0~~~~~~~~~---------------------------------------------------------|
E|--------------------------------------------------------------------|

Guitar 1:
e|-------------------------------------------------------------------------------------------------|
B|-------------------------------------------------------------------------------------------------|
G|-14p13p11h13p11----11-13h14p13p11----11----------------11----11----------------11----------------|
D|----------------14----------------14----14-12-11-12-14----14----14-12-11-12-14----14-12-11-12-14-|
A|-------------------------------------------------------------------------------------------------|
E|-------------------------------------------------------------------------------------------------|
                                          ........................................................

Guitar 1:
e|----------------------------------------------------------------------------------------------|
B|----------------------------------------------------------------------------------------------|
G|-11----11----------------11----------------11----11----------------11----------------11----11-|
D|----14----14-12-11-12-14----14-12-11-12-14----14----14-12-11-12-14----14-12-11-12-14----14----|
A|----------------------------------------------------------------------------------------------|
E|----------------------------------------------------------------------------------------------|
   ............................................................................................

Guitar 1:
e|----------------------------------------------------------------------------|
B|----------------------------------------------------------------------------|
G|----------------11----------------11----------------11----11----------------|
D|-14-12-11-12-14----14-12-11-12-14----14-12-11-12-14----14----14-12-11-12-14-|
A|----------------------------------------------------------------------------|
E|----------------------------------------------------------------------------|
   ..........................................................................

Guitar 1:
e|-------------------------------------------------|
B|-------------------------------------------------|
G|-11h13p11----11-14-13h14p13p11-14-14p13p11----14-|
D|----------14-------------------------------14----|
A|-------------------------------------------------|
E|-------------------------------------------------|

Guitar 1:
e|---------------------------------------------------------|
B|---------------------------------------------------------|
G|-14*p13p11--14-14*p13p11--14-14*p13p11--14-14*p13p11--14-|
D|----------14------------14------------14------------14---| x2
A|---------------------------------------------------------|
E|---------------------------------------------------------|

Guitar 1:
                                                                                           1______
e|------------------------------------------------------------------------------------------------|
B|------------------------------------------------------------------------------------------------|
G|-14p13p11----11---------------------------------------------------------------------------------|
D|----------14----14-12h14p12p11----12p11-----11-14-12h14p12p11--11-------------------------------|
A|-------------------------------14------14-12-----------------14--14-12p11----11-----------------|
E|--------------------------------------------------------------------------14----12~~~(12)b~~~~~~|

Guitar 1:
e|------------------|
B|-3~~~~~~~~--------|
G|-2~~~~~~~~--------|
D|-0~~~~~~~~--------|
A|-0~~~~~~~~--------|
E|------------------|


Please Rate and Comment My Tab.
[travis]

comments
print report bad tab
6 comments total. Showing first comments.
+1 reply
xX_alexx_Xx wrote on May 16 2009, 10:17 pm

I cant find any mistakes..good job (:

-2 reply
Warheart1188 wrote on January 31 2010, 12:56 am

quite a few wrong notes

0 reply
[travis] wrote on January 31 2010, 02:06 am

I don't see any "Warheart1188."

I want to post or [tab]
guest
You may want to rate the tab now too:
select rating
Please do not post tabs as comments. Select "correction" instead!