Oops, an error
Loading. Please wait.

Silence Followed By A Deafining Roar Tab

11,625 views 1 this week
8 commentsread comments
1 2 3 4 5
excellent!
x 12
add to favorites launch autoscroll
font size
0
reset
Autoscroll
+/-
esc
set tempo
stop
Contributor
Difficulty
advanced
WARNING: You are trying to view
                                    content from Ultimate-Guitar.com
                                    in an unauthorized application,
                                    which is prohibited.

                                    Please use an official Ultimate
                                    Guitar Tabs application for iPhone,
                                    iPad or Android to access legitimate
                                    chords, guitar, bass, and drum tabs
                                    from Ultimate-Guitar.com database.

                                    Type "ultimate guitar tabs" in Apple
                                    App Store's or Android Market's
                                    search to find the application.
Song: Silence Followed by a Deafining Roar
Album: Silence Followed by a Deafining Roar

I tab in the tapping section what Paul is exactly doing. But, you can play that approximately. 


Intro

||--12-12-12-12-11-11-11-11-|-11-11-11-11--9--9--9--9--||
||--12-12-12-12-12-12-12-12-|-12-12-12-12-12-12-12-12--||
||o--9--9--9--9-11-11-11-11-|-14-14-14-14--9--9--9--9-o||
||o-------------------------|-------------------------o||
||--------------------------|--------------------------||
||--------------------------|--------------------------||

|-12-12-12-12-11-11-11-11-|-11-11-11-11--9--9--9\-7~--------------|
|-12-12-12-12-12-12-12-12-|-12-12-12-12-12-12-12\-7~--------------|
|--9--9--9--9-11-11-11-11-|-14-14-14-14--9--9--9\-8~--------------|
|-------------------------|-----------------------9~--------------|
|-------------------------|-----------------------9~--------------|
|-------------------------|-----------------------7~----14b===16\-|

Theme
              PM-----------|             PM-|   PM                PM----------|
||--------------------------|------------------------|--------------------------|
||--------------------------|----------------5-------|--------------------------|
||o-------------------------|----------------4----4/-|------------6-4-2---------|
||o-6-7-6-4-6-----------2---|-6-7-6-4-6------2----4/-|-6-7-6-4-6--------6-4-2---|
||--4-4-4-4-4-------2-4---4-|-4-4-4-4-4--0-0----2----|-4-4-4-4-4--------------6-|
||------------0-2-4---------|------------------------|--------------------------|

  PM    PM    PM     PM
|---------------------------||
|---------------------------||
|-----4-----4------4-----4-o||
|---4-----2------4-----4---o||
|-2-----0-----/7-----6------||
|---------------------------||

w/ Theme 

|-----------------|---------------------|----------------------------|
|-9-9pb11r9p7-9~--|-9(21)b11r9p7--------|-9(21)b11r9p7-14b16r-14~\x/-|
|-----------------|--------------9(21)~-|----------------------------|
|-----------------|---------------------|----------------------------|
|-----------------|---------------------|----------------------------|
|-----------------|---------------------|----------------------------|

|-----------------14b15r14p12-------------|---------------------|
|-16b17r16p14-----------------14b15r14p12-|-17-17pb19r17p16-17~-|
|-------------16/-------------------------|---------------------|
|-----------------------------------------|---------------------|
|-----------------------------------------|---------------------|
|-----------------------------------------|---------------------|

|-------------------------|-16-16pb18r16p14-16~\-7/-|-19p17p16----16-17-19p17p16-|
|-17-17pb19r17p16-14~\-9/-|-------------------------|----------19----------------|
|-------------------------|-------------------------|----------------------------|
|-------------------------|-------------------------|----------------------------|
|-------------------------|-------------------------|----------------------------|
|-------------------------|-------------------------|----------------------------|

|-17p16p14----14-16-17p16p14-|-16p14p12----12-14-16p14p12-|-14p12p11----11-12-14p12p11-|
|----------17----------------|----------16----------------|----------14----------------|
|----------------------------|----------------------------|----------------------------|
|----------------------------|----------------------------|----------------------------|
|----------------------------|----------------------------|----------------------------|
|----------------------------|----------------------------|----------------------------|

                   PM                  PM-------|
|-12p9------9---------12p9------9------------------------9-11-|
|------------------------------------------------9-10-12------|
|------13p9---13p9---------13p9---13p9----8-9-11--------------|
|------------------11------------------11---------------------|
|-------------------------------------------------------------|
|-------------------------------------------------------------|

                   PM                  PM
|-12p9------9---------12p9------9---------12p11p9--------------|
|-------------------------------------------------12-10p9------|
|------13p9---13p9---------13p9---13p9--------------------11-9-|
|------------------11------------------11----------------------|
|--------------------------------------------------------------|
|--------------------------------------------------------------|


||--------------------------------------||--------12-14-16-16b18r16-14-12-------|
||-------9h12p9------9h12p9------9h12p9-||-12b14~-------------------------16-12-|
||o-9b11--------9b11--------9b11-------o||--------------------------------------|
||o------------------------------------o||--------------------------------------|
||--------------------------------------||--------------------------------------|
||--------------------------------------||--------------------------------------|


||-------------------14-16-19-16h19p16p14--------------------||--------9-7h9p7p5---------|
||--14~-14~-14-16-17----------------------17-16-14----17-16--||-14\-2------------9-7-5-4-|
||o------------------------------------------------16-------o||--------------------------|
||o---------------------------------------------------------o||--------------------------|
||-----------------------------------------------------------||--------------------------|
||-----------------------------------------------------------||--------------------------|

   T      T      T      T      T      T      T      
|---------------------------------------------------|
|-12p0h7-12p0h7-12p0h7-12p0h7-12p0h5-12p0h5-12p0h5--|
|---------------------------------------------------|
|---------------------------------------------------|
|---------------------------------------------------|
|---------------------------------------------------|


  T     T     T     T     T     T     T           T      T      T      T
|----------------------------------------------|-12p0h5-12p0h5-12p0h5-12p0h5-|
|-7p0h5-7p0h5-7p0h5-7p0h5-7p0h4-7p0h4-7p0h4s5--|-----------------------------|
|----------------------------------------------|-----------------------------|
|----------------------------------------------|-----------------------------|
|----------------------------------------------|-----------------------------|
|----------------------------------------------|-----------------------------|

   T      T      T      T      T      T      T         T
|-12p0h7-12p0h7-12p0h7-12p0h9-12p0h9-12p0h9-12p0h9s11-12p11\-|
|------------------------------------------------------------|
|------------------------------------------------------------|
|------------------------------------------------------------|
|------------------------------------------------------------|
|------------------------------------------------------------|

Interlude

     T      T      x3         T       T       x3        T        T        x3
||--12p0h7-12p7p0--||----||-------------------||---||---------------------||----|
||-----------------||-h7-||--16p7h12-16p12p7--||=/-||--16p10h12-16p12p10--||-=\-|
||o---------------o||----||o-----------------o||---||o-------------------o||----|
||o---------------o||----||o-----------------o||---||o-------------------o||----|
||-----------------||----||-------------------||---||---------------------||----|
||-----------------||----||-------------------||---||---------------------||----|
 
                 x3
||--9p0h7-9p7p0--||                |------------||
||---------------||                |------------||
||o-------------o||    Repeat x4   |------------||
||o-------------o||                |------------||
||---------------||                |------------||
||---------------||                |-14b====16\-||

Guitar Solo
                                 
|---------------3/-16p14---------------------------------------|
|-9-9pb10r9p7-9----------17-16-14------------------------------|
|---------------------------------16-14-13---------------------|
|------------------------------------------16-14-13------------|
|---------------------------------------------------16-15b17~\-|
|--------------------------------------------------------------|

  PM--------------------|
|----------------------------------------------------------17b19--17-|
|----------------------------------13-14-16-16pb17~-17b19------------|
|-------------------------11-13-14-----------------------------------|
|----------------10-11-13--------------------------------------------|
|--------9-11-12-----------------------------------------------------|
|-8h9h11-------------------------------------------------------------|

|-16b18-16-14h16p14----14--------------|----------||--12-----------------||
|-------------------17----17-16-14tr16-|-13h14h16-||-----16-14-13-14-16--||
|--------------------------------------|----------||o-------------------o||
|--------------------------------------|----------||o-------------------o||
|--------------------------------------|----------||---------------------||
|--------------------------------------|----------||---------------------||

|-12----------------12-14-16-|----------12----------------12-14-16-|
|----16-14-13-14-16----------|-13h14h16----16-14-13-14-16----------|
|----------------------------|-------------------------------------|
|----------------------------|-------------------------------------|
|----------------------------|-------------------------------------|
|----------------------------|-------------------------------------|

|----------14----------------14-16-17-|-16h17p16p14----14----------------20-17-16-17-|
|-14h16h17----17-16-14-16-17----------|-------------17----17-16-14-16-17-------------|
|-------------------------------------|----------------------------------------------|
|-------------------------------------|----------------------------------------------|
|-------------------------------------|----------------------------------------------|
|-------------------------------------|----------------------------------------------|

|----16-------------------------------------------------------------16-------|
|-19----19-17-16-17p16h17p16----16-------------------------------17----19p17-|
|----------------------------18----18-16----16----------------16-------------|
|----------------------------------------19----18-19p14-18-19----------------|
|----------------------------------------------------------------------------|
|----------------------------------------------------------------------------|

|-----------------------|
|-21b22p19--------------|
|----------21-20-18-----|
|-------------------21\-|
|-----------------------|
|-----------------------|


 |------------------w/-Phaser-----------------------|

   PM---------------------------------------|   PM
||---------------------------|------------------------|
||---------------------------|----------------5-------|
||---------------------------|----------------4----4/-|
||--6-7-6-4-6-----------2----|-6-7-6-4-6------2----4/-|
||--4-4-4-4-4-------2-4---4/-|-4-4-4-4-4--0-0----2----|
||------------0-2-4----------|------------------------|


                             PM    PM    PM     PM
|--------------------------|---------------------------||
|--------------------------|---------------------------||
|------------6-4-2---------|-----4-----4------4-----4--||
|-6-7-6-4-6--------6-4-2---|---4-----2------4-----4----||
|-4-4-4-4-4--------------6-|-2-----0-----/7-----6------||
|--------------------------|---------------------------||
|
|-------------------------------------|--------------------------------------|
|----------------------------------12-|-14b16-15b19~s19-19b20r19-17----------|
|-13-14-13-11-13-14-13-11-------11----|-----------------------------20b21-16-|
|-11----11-11-11----------13-14-------|--------------------------------------|
|-------------------------------------|--------------------------------------|
|-------------------------------------|--------------------------------------|

w/ Theme 
 
||--19b21~-19b21~----------16h19h21p19p17----16---------------------16-19-21--||
||----------------------------------------------------------------------------||
||o---------------16h18h21----------------21----21p18p16----16h18h21---------o||
||o--------------------------------------------------------------------------o||
||-------------------------------------------------------21-------------------||
||----------------------------------------------------------------------------||

|----------------------------16h21p16h19h21p19p16h19p16h17h19p17p16s14h16h17p16p14----------|
|-19b21--19b21r19~-----------------------------------------------------------------17p16p14p|
|-------------------16h18h21----------------------------------------------------------------|
|-------------------------------------------------------------------------------------------|
|-------------------------------------------------------------------------------------------|
|-------------------------------------------------------------------------------------------|

|----------12h16p12h14h16p14p12s11h14p11h12h14p12p11s9h12p11p9------------|
|-12h14h16-----------------------------------------------------12p10p9----|
|----------------------------------------------------------------------11-|
|-------------------------------------------------------------------------|
|-------------------------------------------------------------------------|
|-------------------------------------------------------------------------|

|---------------------------|--------9----------------------------------|
|-9-10-12p10p9----9-12p10p9-|-12b14~---12p9-10p9----9-12p10p9----9------|
|--------------11-----------|--------------------11-----------11---11p9-|
|---------------------------|-------------------------------------------|
|---------------------------|-------------------------------------------|
|---------------------------|-------------------------------------------|

|-----------------------------9h12----9-----------------------|
|------------------------9h12------12---9h12----9-------------|
|-11-11p9s8-9p8----8-/13---------------------11---9h11----9---|
|---------------11-------------------------------------11---9-|
|-------------------------------------------------------------|
|-------------------------------------------------------------|

              PM    PM         PM|
|---------------------------------------------------------|
|----------------------------------------------------9h12-|
|--------------------------------------------6-8-10/------|
|-11----9--------------------------------6h9--------------|
|----11---9-11----9----------7-----4-6-8------------------|
|--------------12---12-9s7h9---4h7------------------------|

|-9-11-12p11p9-------9-------------------------------------9-|
|--------------12-10---12p10p9h10p9----9-----------------9---|
|-----------------------------------11---11-9s8-9----8s9-----|
|-------------------------------------------------11---------|
|------------------------------------------------------------|
|------------------------------------------------------------|

|-11b14rs14b16~----------14----------------14h16h19p16p14----|
|---------------14h16h17----17p16p14h16h17----------------17-|
|------------------------------------------------------------|
|------------------------------------------------------------|
|------------------------------------------------------------|
|------------------------------------------------------------|

|-14h16h19p16p14----14h16h19p16p14----14-14-14-16-16-16-19-19-19-/21-21-21-|
|----------------17----------------17--------------------------------------|
|--------------------------------------------------------------------------|
|--------------------------------------------------------------------------|
|--------------------------------------------------------------------------|
|--------------------------------------------------------------------------|

|-19-19-19-16-16-16-\14-14-14-\12-12-12-|-\9-9-9-7-7-9s12-11-9-----------------|
|---------------------------------------|----------------------12-10-9~---9h10-|
|---------------------------------------|------------------------------11------|
|---------------------------------------|--------------------------------------|
|---------------------------------------|--------------------------------------|
|---------------------------------------|--------------------------------------|

   T    T      T      T      T      T      T     T 
|-------------------------------------------------------|
|-12p7-12p0h7-12p0h7-12p0h7-12p0h5-12p0h5-12p0h5-12p0h5-|
|-------------------------------------------------------|
|-------------------------------------------------------|
|-------------------------------------------------------|
|-------------------------------------------------------|

  T     T     T     T     T     T           T      T      T      T
|----------------------------------------|-12p0h5-12p0h5-12p0h5-12p0h5/-|
|-7p0h5-7p0h5-7p0h5-7p0h4-7p0h4-7p0h4s7\-|------------------------------|
|----------------------------------------|------------------------------|
|----------------------------------------|------------------------------|
|----------------------------------------|------------------------------|
|----------------------------------------|------------------------------|

   T      T      T      T      T      T      T        T
|-12p0h7-12p0h7-12p0h7-12p0h9-12p0h9-12p0h9-12p0h9p0-12p11\-|
|-----------------------------------------------------------|
|-----------------------------------------------------------|
|-----------------------------------------------------------|
|-----------------------------------------------------------|
|-----------------------------------------------------------|

Outro

     T      T      x3         T       T       x3        T        T        x3
||--12p0h7-12p7p0--||----||-------------------||---||---------------------||----|
||-----------------||-h7-||--16p7h12-16p12p7--||=/-||--16p10h12-16p12p10--||-=\-|
||o---------------o||----||o-----------------o||---||o-------------------o||----|
||o---------------o||----||o-----------------o||---||o-------------------o||----|
||-----------------||----||-------------------||---||---------------------||----|
||-----------------||----||-------------------||---||---------------------||----|
 
                 x3
||--9p0h7-9p7p0--||                |-------------||
||---------------||                |-------------||
||o-------------o||    Repeat x4   |-------------||
||o-------------o||                |-------------||
||---------------||                |-------------||
||---------------||                |-14b====16\--||
comments
print report bad tab
8 comments total. Showing first comments.
+2 reply
Metal_Militian wrote on June 8 2008, 07:45 am

Wow.
This is impossibly accurate, very very nice work.
Thankyou so much for working this out.
5 star, havn't spotted a single mistake.

0 reply
zeal0us wrote on June 15 2008, 05:57 am

What Metal Militian said... Fantastic job, 10 stars! Thanks a bunch!

0 reply
logspran wrote on January 9 2009, 11:09 am

nice, man.

I want to post or [tab]
guest
You may want to rate the tab now too:
select rating
Please do not post tabs as comments. Select "correction" instead!