Oops, an error
Loading. Please wait.

The Gargoyle Tab

ver1
ver1

Whole song

Interactive

More versions @911Tabs.com
30,872 views 15 this week
3 commentsread comments
1 2 3 4 5
excellent!
x 11
Autoscroll
+/-
esc
set tempo
stop
Contributor
Difficulty
advanced
Hey! There's an official Ultimate Guitar app which is ideal
for learning songs when you're away from computer. Get the app
WARNING: You are trying to view
                                    content from Ultimate-Guitar.com
                                    in an unauthorized application,
                                    which is prohibited.

                                    Please use an official Ultimate
                                    Guitar Tabs application for iPhone,
                                    iPad or Android to access legitimate
                                    chords, guitar, bass, and drum tabs
                                    from Ultimate-Guitar.com database.

                                    Type "ultimate guitar tabs" in Apple
                                    App Store's or Android Market's
                                    search to find the application.
Song: The Gargoyle
Album: Silence Followed By A Deafening Roar

Maybe the tapping letter (T) will be at the wrong place( My tab is too long for the page).


Gtr I   (E A D G B E) - 'Paul Gilbert - dist electric - left speaker'
Gtr II  (E A D G B E) - 'Paul Gilbert - dist electric - right speaker'


Intro

    Gtr I
||-----------------------||------------------|
||-----------------------||-0-5p0-0-7p0-0-8--|
||o-9------12-11p9------o||------------------|
||o---12p9---------12-9-o||------------------|
||-----------------------||------------------|
||-----------------------||------------------|
||
||  Gtr II
||-------------------||------------------|
||--------5p3p0------||------------------|
||o-5p4p0-------2p0-o||-0-5p0-0-7p0-0-9--|
||o-----------------o||------------------|
||-------------------||------------------|
||-------------------||------------------|


||-----------------------||------------------|
||-----------------------||-0-8p0-0-7p0-0-5--|
||o-9------12-11p9------o||------------------|
||o---12p9---------12-9-o||------------------|
||-----------------------||------------------|
||-----------------------||------------------|
||
||-------------------||------------------|
||--------5p3p0------||------------------|
||o-5p4p0-------2p0-o||-0-9p0-0-7p0-0-4--|
||o-----------------o||------------------|
||-------------------||------------------|
||-------------------||------------------|


||--12-------15-14p12---------||-0-12p0-0-14p0-0-15--|
||-----15p12-----------15-12--||---------------------|
||o--------------------------o||---------------------|
||o--------------------------o||---------------------|
||----------------------------||---------------------|
||----------------------------||---------------------|
||
||---------------------------||---------------------|
||--13p12----17p15p12--------||-0-13p0-0-15p0-0-17--|
||o-------12----------14-12-o||---------------------|
||o-------------------------o||---------------------|
||---------------------------||---------------------|
||---------------------------||---------------------|


|-12-------15-14p12--------|-12-------15-14h15p14p12-------|-0-15p0-0-14p0-0-12------||
|----15p12-----------15-12-|----15p12----------------15-12-|-------------------------||
|--------------------------|-------------------------------|-------------------------||
|--------------------------|-------------------------------|-------------------------||
|--------------------------|-------------------------------|---------------------14\-||
|--------------------------|-------------------------------|-------------------------||
|
|-------------------------|-------------------------------|-------------------------||
|-13p12----17p15p12-------|-13p12----17-15h17p15p12-------|-0-17p0-0-15p0-0-12------||
|-------12----------14-12-|-------12----------------14-12-|-------------------------||
|-------------------------|-------------------------------|---------------------21\-||
|-------------------------|-------------------------------|-------------------------||
|-------------------------|-------------------------------|-------------------------||


Verse 
    PM------------|                   PM------------|             PM
||----------------------------------|----------------------------------|
||----------------------------------|----------------------------------|
||-------------------9-7-5----------|------------------9-7-5-----------|
||----5-----7p5---9--------9-7-5----|---5-----7-----9--------9-7-5-----|
||--7---7-7-----7----------------9--|-7---7-7---7-7----------------9---|
||----------------------------------|----------------------------------|
||
||  PM-------------------| 1.                   2.
||-------------------------|--------------------|--------------------|
||-------------------------|--------------------|--------------------|
||-------------------------|-12-11p9------------|-12-11p9------------|
||----9-------10-------12--|---------12-10-9----|---------12-10-9s7--|
||-10---10-10----10-10-----|-----------------12-|--------------------|
||-------------------------|--------------------|--------------------|


  PM------------|                  PM------------|
|--------------------------------|----------------------------------|
|--------------------------------|----------------------------------|
|------------------5p4p2---------|------------------5p4p2-----------|
|---2-----4-----5--------5p4p2---|---2-----4-----5--------5p4p2-----|
|-3---3-3---3-3----------------5-|-3---3-3---3-3----------------5---|
|--------------------------------|----------------------------------|
|
|  PM------------|                  PM------------|
|---------------------------------|----------------------------------|
|---------------------------------|----------------------------------|
|-------------------9-7-5---------|------------------9-7-5-----------|
|----5-----7-----9--------9p7p5---|---5-----7-----9--------9-7-5-----|
|-\7---7-7---7-7----------------9-|-7---7-7---7-7----------------9---|
|---------------------------------|----------------------------------|


  PM------------|                  PM------------|
|--------------------------------|-----------------------------------|
|--------------------------------|-----------------------------------|
|--------------------------------|-----------------------------------|
|------------------9-7-5---------|-----------------10-9p7------------|
|---3-----5-----7--------9-7-5---|---6-----7-----9--------10-9-7s6---|
|-5---5-5---5-5----------------8-|-7---7-7---7-7---------------------|
|
| PM------------|                  PM------------|
|--------------------------------|----------------------------------|
|--------------------------------|----------------------------------|
|------------------7-5-4---------|------------------9-8-5-----------|
|---2-----4-----5--------7-5p4---|---4-----5-----7--------9-7-5-----|
|-3---3-3---3-3----------------7-|-6---6-6---6-6----------------9---|
|--------------------------------|----------------------------------|


  PM-----------------------------------------|
|--------------------------------------------------------------------------------|
|--------------------------------------------------------------------------------|
|---------------------5-----7-----9-----11-----12p11p9-12p11p9-12p11p9-11b12~----|
|---5-----7-----9----------------------------------------------------------------|
|-7---7-7---7-7---7-7---7-7---7-7---7-7----7-7-----------------------------------|
|--------------------------------------------------------------------------------|
|
| PM-------|
|-------------------------------------------------------------------------------------|
|-------------------------------------------------------------------------------------|
|-0-4-0-0-5p0-0-7p0-0-9p0-0-11p0-0-12p0-0-14p0-0-16p14p12-16p14p12-16p14p12-14b16~----|
|-------------------------------------------------------------------------------------|
|-------------------------------------------------------------------------------------|
|-------------------------------------------------------------------------------------|


   PM    PM--|    PM--|    1.                      2.
||-------------------------|-----------------------||---------------------|
||-------------------------|-17-15-13--------------||-17p15p13------------|
||----12-------14-------16-|----------16-14-12----o||----------16-14s12\--|
||-14----14-14----14-14----|-------------------16-o||---------------------|
||-------------------------|-----------------------||---------------------|
||-------------------------|-----------------------||---------------------|
||
||  PM    PM--|    PM--|
||-------------------------------------------------||
||---------------------------20-19-17--------------||
||o----16-------17-------19-----------19-17-16----o||
||o-17----17-17----17-17-----------------------19-o||
||-------------------------------------------------||
||-------------------------------------------------||


  PM------------|                   PM------------|
|-------------------8-7-5---------|----------------------------|
|---5-----7-----8---------8-7-5---|---5-----7-----8/--15b16~\--|
|-5---5-5---5-5-----------------7-|-5---5-5---5-5--------------|
|---------------------------------|----------------------------|
|---------------------------------|----------------------------|
|---------------------------------|----------------------------|
|
| PM     PM--|   PM--|                            PM    PM--|    PM-|
|-----------------------------------------------|------------------------------------|
|--------------------------17-15-13-------------|--------------------------19b20~\---|
|----12-------14-------16-----------16-14-12----|----12-------14-------16/-----------|
|-14----14-14----14-14-----------------------16-|-14----14-14----14-14---------------|
|-----------------------------------------------|------------------------------------|
|-----------------------------------------------|------------------------------------|


  PM  PM-|  PM-|
|------------------------------------|-------------------8p7p5----------|
|------------------12p10p8-----------|-0-4p0-0-5p0-0-7p0-------8-7p5----|
|---5-----7-----9----------11-9p7----|-------------------------------8--|
|-7---7-7---7-7-------------------11-|----------------------------------|
|------------------------------------|----------------------------------|
|------------------------------------|----------------------------------|
|
| PM   PM|   PM|                     PM  PM|   PM|
|------------------10-8-7----------|-------------------12-11-8------------|
|---5-----7-----8---------10-8-7---|---7-----8-----10----------12-10-8----|
|-5---5-5---5-5------------------9-|-8---8-8---8-8---------------------11-|
|----------------------------------|--------------------------------------|
|----------------------------------|--------------------------------------|
|----------------------------------|--------------------------------------|


|-0-3p0-0-5p0-0-7p0-0-8p0-0-10p0-0-12p0-0-14p0-0-15p14p12-15p14p12-15p14p12-14b15~-||
|----------------------------------------------------------------------------------||
|----------------------------------------------------------------------------------||
|----------------------------------------------------------------------------------||
|----------------------------------------------------------------------------------||
|----------------------------------------------------------------------------------||
|
|-------------------------------------------------------------------------------||
|-0-5p0-0-7p0-0-8p0-0-10p0-12p0-13p0-0-15p0-0-17p15p13-17p15p13-17p15p13-15b17~-||
|-------------------------------------------------------------------------------||
|-------------------------------------------------------------------------------||
|-------------------------------------------------------------------------------||
|-------------------------------------------------------------------------------||

Chorus 1

||-11----------------11h15p11----11-------|-8--------------8h11p8----8------|
||----------------------------------------|---------------------------------|
||----15p12----12h15----------15----15p12-|---12p8----8h12--------12---12p8-|
||----------13----------------------------|--------10-----------------------|
||----------------------------------------|---------------------------------|
||----------------------------------------|---------------------------------|

|-7-------------7h11p7----7------|-4-----------4h7p4---4-----|
|--------------------------------|---------------------------|
|---11p8---8h11--------11---11p8-|---8p4---4h8-------8---8p4-|
|--------9-----------------------|-------6-------------------|
|--------------------------------|---------------------------|
|--------------------------------|---------------------------|

|-3-----------3h6p3---3-----|------------------------------------------------------|
|---------------------------|-------------6b8/-------------------------------------|
|---7p3---3h7-------7---7p3-|-----------5------0-0-0-0-3-3-3-3-7-7-7-7-12-12-12-12-|
|-------5-------------------|-6-5-3s5-6--------------------------------------------|
|---------------------------|------------------------------------------------------|
|---------------------------|------------------------------------------------------|


                                    T                         T
|-----------------|-----------8h11h16p11p8-------------10h13h18p13p10-|
|-------------15\-|---------9-----------------------11----------------|
|-15-15-15-15-----|-------8----------------------10-------------------|
|-----------------|----10---------------------12----------------------|
|-----------------|-11---------------------13-------------------------|
|-----------------|---------------------------------------------------|


|-13b15~-13b15—13-11-13------|----------------13-14-16~-16b18~-16~----|
|-----------------------13~\-|----------13b15----------------------15-|
|----------------------------|-12----11~------------------------------|
|----------------------------|----13----------------------------------|
|----------------------------|----------------------------------------|
|----------------------------|----------------------------------------|

|-17b19~--17b19-17-15-17---------|-------------12--------------|
|------------------------17b18~\-|-10-12-12b13----12b13-12-10\-|
|--------------------------------|-----------------------------|
|--------------------------------|-----------------------------|
|--------------------------------|-----------------------------|
|--------------------------------|-----------------------------|


Bridge
               x2             x2             x2
||--7----------||--7----------||--7----------||--7----------||-7---------7/-||
||----7p5p0h7--||----7p4p0h7--||----7p5p0h7--||----7p4p0h7--||---7p4p0h7-7/-||
||o-----------o||o-----------o||o-----------o||o-----------o||--------------||
||o-----------o||o-----------o||o-----------o||o-----------o||--------------||
||-------------||-------------||-------------||-------------||--------------||
||-------------||-------------||-------------||-------------||--------------||


Interlude (tremolo picking)

||--12--7--8--14--12--7--3--0--|-14--7-—8--17--15--14--12-—10--|
||-----------------------------|-------------------------------|
||o----------------------------|-------------------------------|
||o----------------------------|-------------------------------|
||-----------------------------|-------------------------------|
||-----------------------------|-------------------------------|

|-12--7--8--19--20--19--17--15--|-14-12-10-8-|
|-------------------------------|------------|
|-------------------------------|------------|
|-------------------------------|------------|
|-------------------------------|------------|
|-------------------------------|------------|

|-7-5-3-------------------------------------||
|-------7-5-4-7-5-4-------------------------||
|-------------------5-4-2-5-4-2------------o||
|-------------------------------5-4-2-1/---o||
|-------------------------------------------||
|-------------------------------------------||
|
|-14-12-11------------------------------------------------||-----------------|
|----------13-12-10-13-12-10------------------------------||-----------------|
|----------------------------12-11-9-12-11-9-------------o||-----------------|
|--------------------------------------------13-10-9-7\--o||-----------------|
|---------------------------------------------------------||-2--3--4--5-5-5--|
|---------------------------------------------------------||-0--1--2--3-3-3--|


Guitar Solo Gtr I

|-1/-------12-------12-------12-14b15-12----12-15b17-12----12/-17b20~\-|
|----15b17----14b17----15b17-------------15-------------15-------------|
|----------------------------------------------------------------------|
|----------------------------------------------------------------------|
|----------------------------------------------------------------------|
|----------------------------------------------------------------------|

|-/17-15-15-14-14-12-12-10-10-8-8-8h10p8----8-10-11-10h11p10p8----10----8-------------|
|----------------------------------------10--------------------10----10---10p8---8-10-|
|------------------------------------------------------------------------------9------|
|-------------------------------------------------------------------------------------|
|-------------------------------------------------------------------------------------|
|-------------------------------------------------------------------------------------|

|---------------------------------------|-------------------------------5-------8-|
|-8-------------------------------------|-5h8p5---5-----5-------5-----------------|
|---9-8-7-9-8-7-5b6---5-7b9r7p5---9b10~-|-------8---8-7---8-7p5---8p7p5---8p7p5---|
|-------------------7-----------7-------|-----------------------------------------|
|---------------------------------------|-----------------------------------------|
|---------------------------------------|-----------------------------------------|

|-7h8p7p5---5-----5-----5---------------------5-------------------------|
|---------8---7b8---8-7---8-7-5-7-8-7h8p7p5-----------------------------|
|-------------------------------------------8---8-7-5-----7-[5]b6-------|
|-----------------------------------------------------7-5---------7b9~\-|
|-----------------------------------------------------------------------|
|-----------------------------------------------------------------------|

Guitar solo Gtr II

|-------------||---------------------------------------------------------------||
|-------------||---------------------------------------------------------------||
|-5s16--14p12-||o----12----------------12-14-16p14p12----12----------------12-o||
|-------------||o-16----16-14-13-14-16----------------16----16-14-13-14-16----o||
|-------------||---------------------------------------------------------------||
|-------------||---------------------------------------------------------------||

|----------------------------------------------------------------------------------|
|----------------------------------------------------------------------------------|
|----------------12-14-16p14p12----------------------------12----------------------|
|-16-14-13-14-16----------------16-14h16p14p13----13h14h16----16p14p13----13h14h16-|
|----------------------------------------------14----------------------14----------|
|----------------------------------------------------------------------------------|

|----------------------------------------11----------------|
|----------------------------------------------------------|
|-12h14p12----12-16-14h16p14p12s11h12h14----14p12p11h12h14-|
|----------16----------------------------------------------|
|----------------------------------------------------------|
|----------------------------------------------------------|

|-11h14p11h12h14p12p11h14h15p14p12----12----------------------------------------------|
|----------------------------------16----15-13h15h13p12----12-------------------------|
|-------------------------------------------------------14----14h12s11h12h14p12p11----|
|----------------------------------------------------------------------------------14-|
|-------------------------------------------------------------------------------------|
|-------------------------------------------------------------------------------------|

                                                            x2
|--------------------------||--------------8-------------7--||--------------|
|--------------------------||-------------------------------||--------------|
|-11h14-12h14p12h\11p9p8h9h||o-11p9p8h9h11---11p9p8h9h11---o||-11p9p8h9h11/-|
|--------------------------||o-----------------------------o||--------------|
|--------------------------||-------------------------------||--------------|
|--------------------------||-------------------------------||--------------|

                                       T          T
|-11----------------11----|-----||-------------------------||
|-------------------------|-4p0h||--7h13p7p4p0h7h12p7p4p0--||
|----14p12p11h12h14----11-|-----||o-----------------------o||
|-------------------------|-----||o-----------------------o||
|-------------------------|-----||-------------------------||
|-------------------------|-----||-------------------------||


        T                     T                T          T
|-------8---------------8h14h20p11h14p11p8h14h17p14p11p8h17/p14p11p8-----------------||
|-12p7/------------------------------------------------------------------------------||
|---------14p11p8h11h14----------------------------------------------14p11p8h11~~----||
|---------------------------------------------------------------------------------x\-||
|---------------------------------------------------------------------------------x\-||
|---------------------------------------------------------------------------------x\-||

Verse 2

    PM    PM--|    PM--|
||-------------------------------------------------||
||---------------------------17-15-13--------------||
||o----12-------14-------16-----------16-14-12----o||
||o-14----14-14----14-14-----------------------16-o||
||-------------------------------------------------||
||-------------------------------------------------||
||
||  PM-------------------|
||--------------------------|---------------------||
||--------------------------|---------------------||
||o-------------------------|-12-11p9------------o||
||o----9-------10-------12--|---------12-10-9----o||
||--10---10-10----10-10-----|-----------------12--||
||--------------------------|---------------------||


  PM-------------| 1.              2.       
|------------------|-8-7-5---------|-8-7-5---------|
|---5-----7-----8--|-------8-7-5---|-------8-7-5-0-|
|-5---5-5---5-5----|-------------7-|---------------|
|------------------|---------------|---------------|
|------------------|---------------|---------------|
|------------------|---------------|---------------|
|
|   PM------------|
||----------------------------------||
||----------------------------------||
||o------------------9-7-5---------o||
||o---5-----7-----9--------9-7-5---o||
||--7---7-7---7-7----------------9--||
||----------------------------------||

                 x2                 x2
||--5------------||--7--------------||-----|
||----8-7-5-7-8--||----10-8-7-8-10--||=s15-|
||o-------------o||o---------------o||-----|
||o-------------o||o---------------o||-----|
||---------------||-----------------||-----|
||---------------||-----------------||-----|
|
| PM------------|                  PM------------|
|--------------------------------|----------------------------------|
|--------------------------------|----------------------------------|
|------------------7-5-4---------|------------------9-8-5-----------|
|---2-----4-----5--------7p5p4---|---4-----5-----7--------9-7-5-----|
|-3---3-3---3-3----------------7-|-6---6-6---6-6----------------9---|
|--------------------------------|----------------------------------|


||--12----------------12-14-15----------||-12----------------12----------------|
||-----15-13-12-13-15----------12-13-15-||----15-13-12-13-15----15-13-12-13-15-|
||o------------------------------------o||-------------------------------------|
||o------------------------------------o||-------------------------------------|
||--------------------------------------||-------------------------------------|
||--------------------------------------||-------------------------------------|
|
|
|---------------------------------------------------------|
|---------------------------------------------------------|
|-0-4p0-0-5p0-0-7p0-0-9p0-0-11p0-0-12p0-0-14p0-0-16p14p12-|
|---------------------------------------------------------|
|---------------------------------------------------------|
|---------------------------------------------------------|


|-12-12-12-12-14-14-14-14-15-15-15-15-15-|
|----------------------------------------|
|----------------------------------------|
|----------------------------------------|
|----------------------------------------|
|----------------------------------------|
|
|--------------------------||
|--------------------------||
|-16p14p12-16p14p12-14b16\-||
|--------------------------||
|--------------------------||
|--------------------------||


|-17-17-17-17-17b18~~\x/-----18-------20-------20b22-20b22r20p18-|
|------------------------/20----20-20----20-20-------------------|
|----------------------------------------------------------------|
|----------------------------------------------------------------|
|----------------------------------------------------------------|
|----------------------------------------------------------------|
|
|   PM-------------|
||---------------------------------------||
||--------------------11-10-8------------||
||o---7-----8-----10----------10-8-7----o||
||o-8---8-8---8-8--------------------10-o||
||---------------------------------------||
||---------------------------------------||


|-------------------------------------------|
|-------------------------------------------|
|-20~--------/22-----19~----------20b21~-19-|
|---------20------17--------19-20-----------|
|-----18-----------------18-----------------|
|-------------------------------------------|
|
|   PM-------------------| 
||-------------------------|-------------------------||-------------------------|
||-------------------------|-------------------------||-------------------------|
||o------------------------|-----12-10-8------------o||-/7-8-10--10b12=12r10\---|
||o----8-------10-------12-|-------------12-10-8----o||-------------------------|
||--10---10-10----10-10----|-10------------------12--||-------------------------|
||-------------------------|-------------------------||-------------------------|


|--------------------------------|----14-------15-------17b19=19=19=19=19\-|
|----16-------18-------18b20~\x/-|-15----15-15----15-15--------------------|
|-17----17-17----17-17-----------|-----------------------------------------|
|--------------------------------|-----------------------------------------|
|--------------------------------|-----------------------------------------|
|--------------------------------|-----------------------------------------|
|
| PM-------------|
|-----------------------------------|------------------12p11-8--------------|
|-----------------------------------|--------------------------12-10-8------|
|------------------10-8-7-----------|---------------11-----------------11---|
|---5-----7-----8---------10-8-7----|---7-----8-----------------------------|
|-6---6-6---6-6------------------10-|-9---9-9---9-9-------------------------|
|-----------------------------------|---------------------------------------|


|-0-3p0-0-5p0-0-7p0-0-8p0-0-10p0-0-12p0-0-14p0-0-15p14p12-15p14p12-15p14p12-14b15~-||
|----------------------------------------------------------------------------------||
|----------------------------------------------------------------------------------||
|----------------------------------------------------------------------------------||
|----------------------------------------------------------------------------------||
|----------------------------------------------------------------------------------||
|
|-------------------------------------------------------------------------------||
|-0-5p0-0-7p0-0-8p0-0-10p0-12p0-13p0-0-15p0-0-17p15p13-17p15p13-17p15p13-15b17~-||
|-------------------------------------------------------------------------------||
|-------------------------------------------------------------------------------||
|-------------------------------------------------------------------------------||
|-------------------------------------------------------------------------------||


Chorus 2

|-11----------------11h15p11----11-------|-8--------------8h11p8----8------|
|----------------------------------------|---------------------------------|
|----15p12----12h15----------15----15p12-|---12p8----8h12--------12---12p8-|
|----------13----------------------------|--------10-----------------------|
|----------------------------------------|---------------------------------|
|----------------------------------------|---------------------------------|

|-7-------------7h11p7----7------|-4-----------4h7p4---4-----|
|--------------------------------|---------------------------|
|---11p8---8h11--------11---11p8-|---8p4---4h8-------8---8p4-|
|--------9-----------------------|-------6-------------------|
|--------------------------------|---------------------------|
|--------------------------------|---------------------------|

|-3-----------3h6p3---3-----|------------------------------------------------------|
|---------------------------|-------------6b8/-------------------------------------|
|---7p3---3h7-------7---7p3-|-----------5------0-0-0-0-3-3-3-3-7-7-7-7-12-12-12-12-|
|-------5-------------------|-6-5-3s5-6--------------------------------------------|
|---------------------------|------------------------------------------------------|
|---------------------------|------------------------------------------------------|


                                    T                         T
|-----------------|-----------8h11h16p11p8-------------10h13h18p13p10-|
|-------------15\-|---------9-----------------------11----------------|
|-15-15-15-15-----|-------8----------------------10-------------------|
|-----------------|----10---------------------12----------------------|
|-----------------|-11---------------------13-------------------------|
|-----------------|---------------------------------------------------|


|-13b15~-13b15—13-11-13------|----------------13-14-16~-16b18~-16~----|
|-----------------------13~\-|----------13b15----------------------15-|
|----------------------------|-12----11~------------------------------|
|----------------------------|----13----------------------------------|
|----------------------------|----------------------------------------|
|----------------------------|----------------------------------------|

|-17b19~--20b22-20-19-17----17-19------------|-------------12---------------|
|------------------------20-------20-17b18~\-|-10-12-12b13----12pb13r12-10\-|
|--------------------------------------------|------------------------------|
|--------------------------------------------|------------------------------|
|--------------------------------------------|------------------------------|
|--------------------------------------------|------------------------------|

Bridge
               x2             x2             x2
||--7----------||--7----------||--7----------||--7----------||-7---------7/-||
||----7p5p0h7--||----7p4p0h7--||----7p5p0h7--||----7p4p0h7--||---7p4p0h7-7/-||
||o-----------o||o-----------o||o-----------o||o-----------o||--------------||
||o-----------o||o-----------o||o-----------o||o-----------o||--------------||
||-------------||-------------||-------------||-------------||--------------||
||-------------||-------------||-------------||-------------||--------------||

Interlude (tremolo picking)

||--12--7--8--14--12--7--3--0--|-14--7-—8--17--15--14--12--10--|
||-----------------------------|-------------------------------|
||o----------------------------|-------------------------------|
||o----------------------------|-------------------------------|
||-----------------------------|-------------------------------|
||-----------------------------|-------------------------------|

|-12--7--8--19--20--19--17--15--|-14-12-10-8-|
|-------------------------------|------------|
|-------------------------------|------------|
|-------------------------------|------------|
|-------------------------------|------------|
|-------------------------------|------------|


|-7-5-3-------------------------------------||
|-------7-5-4-7-5-4-------------------------||
|-------------------5-4-2-5-4-2------------o||
|-------------------------------5-4-2-1/---o||
|-------------------------------------------||
|-------------------------------------------||
|
|-14-12-11------------------------------------------------||-----------------|
|----------13-12-10-13-12-10------------------------------||-----------------|
|----------------------------12-11-9-12-11-9-------------o||-----------------|
|--------------------------------------------13-10-9-7\--o||-----------------|
|---------------------------------------------------------||-2--3--4--5-5-5--|
|---------------------------------------------------------||-0--1--2--3-3-3--|


Outro

||-----------------------||------------------|
||-----------------------||-0-5p0-0-7p0-0-8--|
||o-9------12-11p9------o||------------------|
||o---12p9---------12-9-o||------------------|
||-----------------------||------------------|
||-----------------------||------------------|
||
||-------------------||------------------|
||--------5p3p0------||------------------|
||o-5p4p0-------2p0-o||-0-5p0-0-7p0-0-9--|
||o-----------------o||------------------|
||-------------------||------------------|
||-------------------||------------------|


||-----------------------||------------------|
||-----------------------||-0-8p0-0-7p0-0-5--|
||o-9------12-11p9------o||------------------|
||o---12p9---------12-9-o||------------------|
||-----------------------||------------------|
||-----------------------||------------------|
||
||-------------------||------------------|
||--------5p3p0------||------------------|
||o-5p4p0-------2p0-o||-0-9p0-0-7p0-0-4--|
||o-----------------o||------------------|
||-------------------||------------------|
||-------------------||------------------|


||--12-------15-14p12---------||-0-12p0-0-14p0-0-15--|
||-----15p12-----------15-12--||---------------------|
||o--------------------------o||---------------------|
||o--------------------------o||---------------------|
||----------------------------||---------------------|
||----------------------------||---------------------|
||
||---------------------------||---------------------|
||--13p12----17p15p12--------||-0-13p0-0-15p0-0-17--|
||o-------12----------14-12-o||---------------------|
||o-------------------------o||---------------------|
||---------------------------||---------------------|
||---------------------------||---------------------|


|-12-------15-14p12--------|-12-------15-14h15p14p12-------|-0-15p0-0-14p0-0-12\--||
|----15p12-----------15-12-|----15p12----------------15-12-|----------------------||
|--------------------------|-------------------------------|----------------------||
|--------------------------|-------------------------------|----------------------||
|--------------------------|-------------------------------|----------------------||
|--------------------------|-------------------------------|----------------------||
|
|-------------------------|-------------------------------|----------------------||
|-13p12----17p15p12-------|-13p12----17-15h17p15p12-------|-0-17p0-0-15p0-0-12\--||
|-------12----------14-12-|-------12----------------14-12-|----------------------||
|-------------------------|-------------------------------|----------------------||
|-------------------------|-------------------------------|----------------------||
|-------------------------|-------------------------------|----------------------||

Guitar Solo End
||----------------------------------------------------|
||----------------------------------------------------|
||----------------------------------------------------|
||----------------------------------------------------|
||----------12h15p12----12-19-15h19p15p12----12h15h19-|
||-12h15h19----------19-------------------19----------|

|-------------------------------------------------------------|
|-------------------------------------------------------------|
|-------------------------------------------------------------|
|-12----------------12h15p12----12-19-15h19p15p12----12h15h19-|
|----19-15-12-15-19----------19-------------------15----------|
|-------------------------------------------------------------|

|-------------------------------------------------------------|
|-------------------------------------------------------------|
|-12----------------12h15p12----12-19-15h19p15p12----12h15h19-|
|----19-15-12-15-19----------15-------------------19----------|
|-------------------------------------------------------------|
|-------------------------------------------------------------|

|-------------------------------------------------------------|
|-12----------------12h15p12----12-19-17h19p15p12----12h15h19-|
|----19-15-12-15-19----------19-------------------19----------|
|-------------------------------------------------------------|
|-------------------------------------------------------------|
|-------------------------------------------------------------|

|-12----------------12h15p12----12-19-15h19p15p12-|
|----19-15-12-15-19----------19-------------------|
|-------------------------------------------------|
|-------------------------------------------------|
|-------------------------------------------------|
|-------------------------------------------------|

|-19-15h19p15p12----12----------------------------------------------------------|
|----------------19----19p15p12----12-------------------------------------------|
|-------------------------------19----19p15p12----12----------------------------|
|----------------------------------------------19----19p15p12----12-------------|
|-------------------------------------------------------------19----19p17p15----|
|----------------------------------------------------------------------------19-|

|--------------------------------------------||
|--------------------------------------------||
|--------------------------------------------||
|--------------------------------------------||
|-12h15p12h14p12-19-15h19p15p12--------------||
|-------------------------------19-17-15b17~-||

||-------------14-15p14-------------------------12-14p12----------|
||-------14h17----------17p14-------------11h14----------14p11----|
||----------------------------------------------------------------|
||-14h17----------------------17-14s11h14----------------------14-|
||----------------------------------------------------------------|
||----------------------------------------------------------------|

|---------------9-10p9-------------------5-6p5----------------------||
|---------8h11---------11p8----------5h8-------8p5------------------||
|-------------------------------------------------------------------||
|-11s8h11-------------------11-8s5h8---------------8-5p0------------||
|--------------------------------------------------------4p0--------||
|------------------------------------------------------------5-0----||
comments
print report bad tab
3 comments total.
+1 reply
Ultimatemetal wrote on July 11 2008, 07:30 pm

Good tab, the T for tapping r in the right places

+1 reply
Killerboss wrote on November 27 2009, 05:35 pm

Holy crap you are a legend,seriously how long did u spent at this lol

0 reply
col50 wrote on September 4 2010, 10:18 pm

Epic song. Awesome tab

I want to post or [tab]
guest
You may want to rate the tab now too:
select rating
Please do not post tabs as comments. Select "correction" instead!