Oops, an error
Loading. Please wait.

Three Es For Edward Tab

ver1
ver1

Whole song

Interactive

More versions @911Tabs.com
3,608 views 3 this week
no commentswrite comment
1 2 3 4 5
excellent!
x 2
add to favorites launch autoscroll
font size
0
reset
Autoscroll
+/-
esc
set tempo
stop
WARNING: You are trying to view
                                    content from Ultimate-Guitar.com
                                    in an unauthorized application,
                                    which is prohibited.

                                    Please use an official Ultimate
                                    Guitar Tabs application for iPhone,
                                    iPad or Android to access legitimate
                                    chords, guitar, bass, and drum tabs
                                    from Ultimate-Guitar.com database.

                                    Type "ultimate guitar tabs" in Apple
                                    App Store's or Android Market's
                                    search to find the application.
                             Three E's for Edward                               


                                                                    Paul Gilbert





      E.  S S  S E  E  E   E  E     E.  S S S E  E  E  E  E   
E||-----------------0------------|---------------0--------0--|
E||-------7-L----7-----7------7--|------6-L---6-----6--------|
E||--10-------10----------10-----|--9-------9----------9-----|
D||------------------------------|---------------------------|
A||------------------------------|---------------------------|
E||------------------------------|---------------------------|


  E.  S S S E  E  S S S S S S    E  E  E  E  E  S S S S S S  
------0-0-0-0--0--0-0-L-0-0-0-|--------------0--0-0-0-L-0-0-|
--5---5-5-5-5--5--5-5-L-5-5-5-|-----0--0--0--0--0-0-0-L-0-0-|
--8---8-8-8-8--8--8-8-L-8-8-8-|--0--0--2--3--4--4-4-3-L-2-0-|
------------------------------|-----------------------------|
------------------------------|-----------------------------|
------------------------------|-----------------------------|


  S S  E   S  E   S  E  S  S  S  S  S  S    E  E  S S S S E  S S S S S S  
-----------0--0---0--0-----0--0--0--0--0-|-----0--0-0-0-0-0--0-0-0-0-0-0-|
------10--10-10--10-10----10-10-10-10-10-|-----9--9-9-9-9-9--9-9-9-9-9-9-|
--7-7--7----------------7----------------|--6-------------6--6-6-6-------|
-----------------------------------------|-------------------------------|
-----------------------------------------|-------------------------------|
-----------------------------------------|-------------------------------|


  E  E  S S S S S S S S S S S S    S S S S E  E  E  S S S  S  S S  
--------0-0-0-0-0-0-0-0-0-0---0-|----0-0-0-0--0--0--0-0-L--0----0-|
--8--8--8-8-8-8-8-8-8-8-8-8---0-|--0-0-0-0-0--0--0--0-0-L---------|
--5--5--5-5-5-5-5-5-5-5-5-5-0-0-|--0-0-0-0-2--3--4--4-4-L-12-12---|
--------------------------------|---------------------------------|
--------------------------------|---------------------------------|
--------------------------------|---------------------------------|


  S S   S S S  S S  S S S  S  S  S S   S S  
----------0-4p-0---10---0----------------0-|
----0h-10--------0----0---10p-0----0h-10---|
--0-----------------------------10---------|
-------------------------------------------|
-------------------------------------------|
-------------------------------------------|


  S S  S S S  S S S S S S  S S S  S S    S S  S S S  S S S S S S  S S S  S S  
--------0-4p-0---9---0-------------0-|---------0-4p-0---8---0-------------0-|
----0h-9--------0---0---9p-0---0h-9--|-----0h-8---0----0---0---8p-0--0h-8---|
-0--------------------------9--------|--0--------------------------8--------|
-------------------------------------|--------------------------------------|
-------------------------------------|--------------------------------------|
-------------------------------------|--------------------------------------|


                      |--6-|  |--6-|            
  S  S  S S  S  S S S S  S S  S  S S S S  S  S  
------------------0-4-7p-4-7p-4p-0---0---------|
----------0h-4h-7------------------7---7p-4p-0-|
--0h-4h-7--------------------------------------|
-----------------------------------------------|
-----------------------------------------------|
-----------------------------------------------|


  S S   S S S  S S  S S  S  S  S S  S  S S    E  E  S  S S S S S S  S S S  S S  
--------0-4p-0---10---12p-0----0---------|--------4p-0--9---0-------------0-|
--0h-10--------0----0-------10---10p-0---|-----9-------0---0---9p-0--0h-9---|
-0-------------------------------------0-|--0-----------------------9--------|
-----------------------------------------|-----------------------------------|
-----------------------------------------|-----------------------------------|
-----------------------------------------|-----------------------------------|


                                      SH 
  S S  S S S  S S S S S S  S S S  S   S  
---------0-4p-0---8---0-------------<>7-|
----0h-8--------0---8---8p-0---0h-8-----|
--0--------------------------8----------|
----------------------------------------|
----------------------------------------|
----------------------------------------|


                      |--6-|  |--6-|            
  S  S  S S  S  S S S S  S S  S  S S S S  S  S  
------------------0-4-7p-4-7p-4p-0---0---------|
----------0h-4h-7------------------7---7p-4p-0-|
--0h-4h-7--------------------------------------|
-----------------------------------------------|
-----------------------------------------------|
-----------------------------------------------|


  E  S S S S S S E  S S S S S S    E  E  E  E  E  S S S S S S  
-----------0-0-0------0-0-0---0-|-----0-----0-------0---0---0-|
-------6-6-6-6-6-5--5-------0---|-----0--0--0--0--0-0-0-0-0-0-|
--2--2-----------7--7-------0---|--0--0--2--3--4--4-4-3-3-2-0-|
--------------------------------|-----------------------------|
--------------------------------|-----------------------------|
--------------------------------|-----------------------------|


                                                               NH  
  E  S S S S S S S E  S S S S S    E  S S S S S S E  E  S S    E   
-------0-L-0---0------0-L-0-0-0-|--0--0-0-0-0-0-0----0------------|
-----9-7-L-7---0------6-L-6-0-0-|--5--5-5-5-5-5-5----0------<>12--|
--9--7-------0---2-2--------0---|--7--7-------7---0-----0-0--<>7--|
--------------------------------|---------------------------------|
--------------------------------|---------------------------------|
--------------------------------|---------------------------------|


            |--3--| |-6-| |-6-| |-3-|      
  E  S S E  S  S  S S S S S S S S S S S S  
--0--0-0----------------------------------|
--0--0-0------------4-----------4-5-7-0---|
--0--0-0-0--4h-5h-7---7-5-4-5-7---------0-|
------------------------------------------|
------------------------------------------|
------------------------------------------|


             |-3-| |-6-| |-6-| |-3-|      
  S S S S E  S S S S S S S S S S S S S S  
-------------------------------------4---|
-------------------4-----------4-5-7-----|
--0-0-0-0-0--4-5-7---7-5-4-5-7---------0-|
-----------------------------------------|
-----------------------------------------|
-----------------------------------------|


             |--3--| |--6-|  |--6--| |--3--|      
  S S S S E  S  S  S S S  S  S  S  S S  S  S S S  
---------------------------------------------5---|
---------------------5---------------5h-7h-9-----|
--0-0-0-0-0--5h-7h-9---9p-7p-5h-7h-9-----------0-|
-------------------------------------------------|
-------------------------------------------------|
-------------------------------------------------|


             |-3-| |-6-| |-6-| |--3--|      
  S S S S E  S S S S S S S S S S  S  S S S  
---------------------------------------5---|
-------------------5-----------5h-7h-9-----|
--0-0-0-0-0--5-7-9---9-7-5-7-9-----------0-|
-------------------------------------------|
-------------------------------------------|
-------------------------------------------|


             |---3---| |--6--| |--6--| |---3---|      
  S S S S E  S   S   S S  S  S S  S  S S   S   S S S  
-------------------------------------------------9---|
-----------------------9---------------9h-11h-12-----|
--0-0-0-0-0--9h-11h-12---12-11-9-11-12-------------0-|
-----------------------------------------------------|
-----------------------------------------------------|
-----------------------------------------------------|


             |---3--| |--6--|  |---6--| |---3--|      
  S S S S E  S  S   S S  S  S  S  S   S S  S   S S S  
-------------------------------------------------7---|
----------------------7-----------------7h-9h-11-----|
--0-0-0-0-0--7h-9h-11---11p-9p-7h-9h-11------------0-|
-----------------------------------------------------|
-----------------------------------------------------|
-----------------------------------------------------|


             |--3--| |--6-|  |--6--| |--6--| |-6-|  
  S S S S E  S  S  S S S  S  S  S  S S  S  S S S S  
---------------------------------------------------|
---------------------5---------------5h-7p-5---5-9-|
--0-0-0-0-0--5h-7h-9---9p-7p-5h-7h-9---------9-----|
---------------------------------------------------|
---------------------------------------------------|
---------------------------------------------------|


  |--6--|  |-6-|  |--6-| |-6-| |-6-|  |--6-| |-6-|  |--6--|  
  S  S  S  S S S  S  S S S S S S S S  S  S S S S S  S  S  S  
-----------------------5-----------5h-7p-5---5-9-7h-9p-7p-5-|
--7h-9p-7p-5---5h-7h-9---9-7-5-7-9---------9----------------|
-------------9----------------------------------------------|
------------------------------------------------------------|
------------------------------------------------------------|
------------------------------------------------------------|


  |--6-|  |--6-|         |--6--|  |--6--|  |--6-|  |--6-|  
  S S  S  S  S S S S S S S  S  S  S  S  S  S  S S  S  S S  
--9-7h-9p-7p-5---5-----5----------------------------------|
---------------9---9-7---9p-7p-5h-7h-9p-7p-5h---5h-7p-5---|
----------------------------------------------9---------9-|
----------------------------------------------------------|
----------------------------------------------------------|
----------------------------------------------------------|


  7 7 7  7  7  7 7 --|--6-|  6  6              
  S S S  S  S  S S S S S  S  S  S  E  E  Q     
----------------------------------------------|
--5-9-7h-9p-7p-5---5--------------------------|
-----------------9---9-7h-9p-5p-0h-5--7--5----|
----------------------------------------------|
----------------------------------------------|
----------------------------------------------|


          |--3--| |-6-| |-6-| |--3--|      
  Q    E  S  S  S S S S S S S S  S  S S S  
--------------------------------------4---|
------------------4-----------4h-5h-7-----|
--5----0--4h-5h-7---7-5-4-5-7-----------0-|
------------------------------------------|
------------------------------------------|
------------------------------------------|


             |-3-| |-6-| |-6-| |--3--|      
  S S S S E  S S S S S S S S S S  S  S S S  
---------------------------------------4---|
-------------------4-----------4h-5h-7-----|
--0-0-0-0-0--4-5-7---7-5-4-5-7-----------0-|
-------------------------------------------|
-------------------------------------------|
-------------------------------------------|


             |-3-| |-6-| |-6-| |--3--|      
  S S S S E  S S S S S S S S S S  S  S S S  
---------------------------------------5---|
-------------------5-----------5h-7h-9-----|
--0-0-0-0-0--5-7-9---9-7-5-7-9-----------0-|
-------------------------------------------|
-------------------------------------------|
-------------------------------------------|


             |-3-| |-6-| |-6-| |--3--|      
  S S S S E  S S S S S S S S S S  S  S S S  
---------------------------------------5---|
-------------------5-----------5h-7h-9-----|
--0-0-0-0-0--5-7-9---9-7-5-7-9-----------0-|
-------------------------------------------|
-------------------------------------------|
-------------------------------------------|


             |---3---| |--6--| |--6--| |---3---|      
  S S S S E  S   S   S S  S  S S  S  S S   S   S S S  
-------------------------------------------------9---|
-----------------------9---------------9h-11h-12-----|
--0-0-0-0-0--9h-11h-12---12-11-9-11-12-------------0-|
-----------------------------------------------------|
-----------------------------------------------------|
-----------------------------------------------------|


             |---3--| |--6--|  |---6--| |---3--|      
  S S S S E  S  S   S S  S  S  S  S   S S  S   S S S  
-------------------------------------------------7---|
----------------------7-----------------7h-9h-11-----|
--0-0-0-0-0--7h-9h-11---11p-9p-7h-9h-11------------0-|
-----------------------------------------------------|
-----------------------------------------------------|
-----------------------------------------------------|


             |--3-| |-6-| |-6-|  |--3--|  |-3-|  
  S S S S E  S  S S S S S S S S  S  S  S  S S S  
------------------------------------------------|
------------------5-----------5h-7h-9p-7p-5---5-|
--0-0-0-0-0--7h-9---9-7-5-7-9---------------9---|
------------------------------------------------|
------------------------------------------------|
------------------------------------------------|


  |--6-| |6|  |-6-| |--6--|  |-6-| |--6-|  |-6-|  |--6-|  
  S  S S S E  S S S S  S  S  S S S S S  S  S S S  S  S S  
-------5------------5h-7h-9p-7-5---5-------------------5-|
--7h-9---9-7--5-7-9--------------9---9p-7p-5---5h-7h-9---|
---------------------------------------------9-----------|
---------------------------------------------------------|
---------------------------------------------------------|
---------------------------------------------------------|


           |--3--|  |--6--|  |--6--|  |---6---|       
  Q    E   S  S  S  S  S  S  S  S  S  S   S   S  S S  
--5---------------------------------------------12---|
-------------------12----------------12h-14h-15------|
-------0--12-14-15----15-14-12-14-15---------------8-|
-----------------------------------------------------|
-----------------------------------------------------|
-----------------------------------------------------|


              |---3---|  |--6--|  |--6--|  |---3---|       
  S S S S E   S   S   S  S  S  S  S  S  S  S   S   S  S S  
-----------------------------------------------------12---|
------------------------12----------------12h-14h-15------|
--8-8-8-8-8--12h-14h-15----15-14-12-14-15---------------8-|
----------------------------------------------------------|
----------------------------------------------------------|
----------------------------------------------------------|


              |---3---|  |--6--|  |--6--|  |---3---|       
  S S S S E   S   S   S  S  S  S  S  S  S  S   S   S  S S  
-----------------------------------------------------11---|
------------------------11----------------11h-12h-14------|
--8-8-8-8-8--11h-12h-14----14-12-11-12-14---------------7-|
----------------------------------------------------------|
----------------------------------------------------------|
----------------------------------------------------------|


              |---3---|  |--6--|  |--6--|  |---3---|       
  S S S S E   S   S   S  S  S  S  S  S  S  S   S   S  S S  
-----------------------------------------------------11---|
------------------------11----------------11h-12h-14------|
--7-7-7-7-7--11h-12h-14----14-12-11-12-14---------------7-|
----------------------------------------------------------|
----------------------------------------------------------|
----------------------------------------------------------|


              |--3--| |--6-|  |--6--| |--3--|      
  S S S S S S S  S  S S S  S  S  S  S S  S  S S S  
----------------------------------------------0---|
----------------------0---------------0h-3h-6-----|
--7-7-7-7-7-0-0h-3h-6---6p-3p-0h-3h-6-----------6-|
--------------------------------------------------|
--------------------------------------------------|
--------------------------------------------------|


                     |--6-|  |--6--| |--3--|      
  S S S S S  S  S  S S S  S  S  S  S S  S  S S S  
---------------------------------------------0---|
---------------------0---------------0h-3h-6-----|
--6-6-6-6-6p-0h-3h-6---6p-3p-0h-3h-6-----------6-|
-------------------------------------------------|
-------------------------------------------------|
-------------------------------------------------|


                       T            T T  T   T T  T   T T  T         
                  |--3-|                                             
  S S S S Q    E  S S  S  Q       S S S  S S S S  S S S S  S E  S S  
-------------------------------|-----------------11-0-5-7-11-7--5-0-|
-------------------------------|--------11-0-5-7--------------------|
--6-6-6-6-6----0--5-7-11-11----|--0-5-7-----------------------------|
-------------------------------|------------------------------------|
-------------------------------|------------------------------------|
-------------------------------|------------------------------------|


  T  T       T  T       T    T    T    T    T      T  
  |----5---| |----5---| |--6-| |--6-|  |--6-| |--6-|  
  S  S S S S S  S S S S S S  S S  S S  S S  S S S  S  
-----------------------------------------------------|
--7-11-7-5-0----------------11-5-11-5------11-0-7-11-|
-------------7-11-7-5-0-5-7-----------12-7-----------|
-----------------------------------------------------|
-----------------------------------------------------|
-----------------------------------------------------|


    T      T        T        T       T          T  
  |-6-| |--6-| |--6-| |-6-|  |---5---|  |---5---|  
  S S S S  S S S S  S S S S  S S S S S  S S S S S  
-------------------11-7-5-0-12-7-5-0-7-11-7-5-0---|
--5-7-5-0-11-7-5-0------------------------------7-|
--------------------------------------------------|
--------------------------------------------------|
--------------------------------------------------|
--------------------------------------------------|


   T       T  T       T  T       T  T       T  
   |---5---|  |---5---|  |---5---|  |---5---|  
   S S S S S  S S S S S  S S S S S  S S S S S  
----------------------------------------------|
--11-7-5-0-7-12-7-5-0-7-11-7-5-0--------------|
---------------------------------7-11-7-5-0-7-|
----------------------------------------------|
----------------------------------------------|
----------------------------------------------|


   T       T  T       T  T       T  T       T  
   |---5---|  |---5---|  |---5---|  |---5---|  
   S S S S S  S S S S S  S S S S S  S S S S S  
----------------------------------------------|
----------------------------------------------|
--12-7-5-0-7-11-7-5-0-7-12-7-5-0-7-11-7-5-0-7-|
----------------------------------------------|
----------------------------------------------|
----------------------------------------------|


   T       T  T       T  T       T  T       T                        
   |---5---|  |---5---|  |---5---|  |---5---|                        
   S S S S S  S S S S S  S S S S S  S S S S S    H.           E.  S  
----------------------------------------------|-------------------0-|
----------------------------------------------|-------------------0-|
--12-7-5-0-7-11-7-5-0-7-12-7-5-0-7-11-7-5-0-7-|--L------------x-----|
----------------------------------------------|---------------------|
----------------------------------------------|---------------------|
----------------------------------------------|---------------------|


  PM PM     PM   PM PM       PM      PM PM                        
  E  E  S S S  S E  S  S S S S  S    E  E  S S S S E  S S S S E   
-----0--L-0----0-------0-L-0----0-|--0--0--0-0-0-0---------------|
-----7--L-7----0-------6-L-6----0-|--5--5--5-5-5-5---------------|
--9--9--L---0----2--2--------0----|--7--7------7---0--0-0-3-3-0--|
----------------------------------|------------------------------|
----------------------------------|------------------------------|
----------------------------------|------------------------------|


   E  E  S S S S E  S S S S E     E  S S S S S S S  S S  S S  S S  S  
------0--L-0--------0-0-L-0----|--0--0-0-L-0-0-0-4p-0-3p-0-2p-0-1p-0-|
------7--L-7--------6-6-L-6----|--5--5-5-L-5-5-----------------------|
--/9--9--L---0-0-2----------0--|--7--7-------7-----------------------|
-------------------------------|-------------------------------------|
-------------------------------|-------------------------------------|
-------------------------------|-------------------------------------|


  PM                                                              
  E  S S S S S S E  S S S S S S    E  S S S S S S E  S S S S S S  
-----0-0-L-0--------0-0-L-0---0-|--0--0-0-L-0-0-0-0--0-0-0-0-0-0-|
-----7-7-L-7--------6-6-L-6---0-|--5--5-5-L-5-5-5-4--4-4-4-4-4-4-|
--9--9-9-L---0-0-2--2-------0-0-|--7--7-------7---0--------------|
--------------------------------|--------------------------------|
--------------------------------|--------------------------------|
--------------------------------|--------------------------------|


           |--6-|  |--6-|                   
  S  S S S S S  S  S  S S S S  S S S S  E   
--7p-0---0-9-7h-9p-7p-0---0----------------|
-------9----------------9---9p-7-0---7p-0--|
-----------------------------------9-------|
-------------------------------------------|
-------------------------------------------|
-------------------------------------------|


  S S T  T  T  T S S S S  S S S  S S S S S  
--2-6-2h-6p-2p-0---0-----------------------|
-----------------6---6-2p-0---2p-0---0-----|
----------------------------6------6---6-2-|
-------------------------------------------|
-------------------------------------------|
-------------------------------------------|


                       |----7----|  7  7 --5 5  5 5  
  S  S  S S  S  S S S  S  S S S  S  S  S S S S  S S  
------------------0---------7-5h-7p-5p-0---0--------|
----------0h-5h-7---7p-5p-0--------------7---7p-5-0-|
--0h-5h-7-------------------------------------------|
----------------------------------------------------|
----------------------------------------------------|
----------------------------------------------------|


  S S  T  T  T T S S  S  S S S S  S E  S S  
--7-4h-7p-4p-0---0---------------------0-0-|
---------------7---7p-4p-0---0------0--0---|
---------------------------7---7p-4--------|
-------------------------------------------|
-------------------------------------------|
-------------------------------------------|


                         |1|  |--12| |1|  |-12|          
  S S S S S S  T  T  T T S T  T  T T S T  T T T E  S  S  
----0---0-9-7h-9p-7p-0---0-----------0----------0--2p-0-|
------9----------------9---9p-7p-0-----9p-7-0-----------|
-----------------------------------9----------9---------|
--------------------------------------------------------|
--------------------------------------------------------|
--------------------------------------------------------|


      |-----5-----|               |----5----|          
  S S T  T  T  T  T S S T  T  T T S S  S  S S E  S  S  
----0-6p-2h-6p-2p-0---0-----------0-----------0--5p-0-|
--6-----------------6---6p-2p-0-----6p-2p-0-----------|
--------------------------------6-----------6---------|
------------------------------------------------------|
------------------------------------------------------|
------------------------------------------------------|


      |-----5----| |-6-|  |--6-| |----5----| |--6--| |--6--|  
  S S T T  T  T  T S S S  S  S S S S  S  S S S  S  S S  S  S  
----0-7-5h-7p-5p-0---0-----------0---------------------------|
-------------------7---7p-5p-0-----7p-5p-0-----------0h-4h-7-|
-------------------------------7-----------7-0h-4h-7---------|
-------------------------------------------------------------|
-------------------------------------------------------------|
-------------------------------------------------------------|


                                               T               
  |--6-| |--6-|  |-6-| |--6--| |--6-|  |--6-|  |---7---|  7 7  
  S S  S S S  S  S S S S  S  S S S  S  S S  S  S S S S S  S S  
--0--------7p-4p-0---0-------------------0h-7-12-7-4-0--------|
----7p-4-0---------7---7p-4p-0---0h-4h-7---------------7-12-7-|
-------------------------------7------------------------------|
--------------------------------------------------------------|
--------------------------------------------------------------|
--------------------------------------------------------------|


       T       T  T   T  T   T  T      T   T  T       T  T                   
  7 7  7 7 7 7 7                       |-3-|  |---5---|  |---6---| |-6-|     
  T T  T T T T T  T T T  T T T  T T S  T T T  T T T T T  S   S   S S S S E   
------------------------12-0-7-12-0---12-0-7-12-7-4-0-7-12s-16s-12-7-4-0----|
--4-0------------12-0-4-----------------------------------------------------|
------12-7-4-0-4------------------------------------------------------------|
----------------------------------------------------------------------------|
----------------------------------------------------------------------------|
----------------------------------------------------------------------------|


   T                                                         
   |---6---| |-6-|  |---6---| |-6-|  |---3---|   |---3---|   
   S   S   S S S S  S   S   S S S S  E   E   E   E   E   E   
------------------------------------------------------------|
--12s-16s-12-7-4-0------------------------------12--14--16--|
-------------------12s-16s-12-7-4-0-12--14--16--------------|
------------------------------------------------------------|
------------------------------------------------------------|
------------------------------------------------------------|


                              NH                          
  |---3---|                                               
  E   E   E   E  E   E  E     Q       W                   
--7--12--14--16-----19-----<>24----|--0~----------------||
-----------------------------------|--0-----------------||
-----------------------------------|--0-----------------||
-----------------------------------|--------------------||
-----------------------------------|--------------------||
-----------------------------------|--------------------||




Duration Legend
---------------
W - whole
H - half
Q - quarter
E - 8th
S - 16th
T - 32nd
X - 64th
. - note dotted
|-n-|  - n-tuplets


Tablature Legend
----------------
L - tied note
x - dead note
g - grace note
(n) - ghost note
> - accentuded note
NH - natural harmonic
AH - artificial harmonic
TH - tapped harmonic
SH - semi harmonic
PH - pitch harmonic
h - hammer on
p - pull off
b - bend
br - bendRelease
pb - preBend
pbr - preBendRelease
brb - bendReleaseBend
\n/ - tremolo bar dip
\n - tremolo bar dive
-/n - tremolo bar Release up
/n\ - tremolo bar inverted dip
/n - tremolo bar return
-\n - tremolo bar Release down
S - shift slide
s - legato slide
/ -  slide into from below or out of upwards
\ -  slide into from above or out of downwards
~ - vibrato
W - wide vibrato
tr - trill
TP - tremolo picking
T - tapping
S - slap
P - pop
< - fade in
^ - brush up
v - brush down
comments
We did not receive enough feedback on this tab! Please rate:
print report bad tab
1 2 3 4 5
I want to post or [tab]
guest
You may want to rate the tab now too:
select rating
Please do not post tabs as comments. Select "correction" instead!