Oops, an error
Loading. Please wait.

Viking Kong Tab

13,277 views 12 this week
2 commentsread comments
1 2 3 4 5
accurate
x 3
add to favorites launch autoscroll
font size
0
reset
Autoscroll
+/-
esc
set tempo
stop
Contributor
Difficulty
Tuning
intermediate
D A D G B E
WARNING: You are trying to view
                                    content from Ultimate-Guitar.com
                                    in an unauthorized application,
                                    which is prohibited.

                                    Please use an official Ultimate
                                    Guitar Tabs application for iPhone,
                                    iPad or Android to access legitimate
                                    chords, guitar, bass, and drum tabs
                                    from Ultimate-Guitar.com database.

                                    Type "ultimate guitar tabs" in Apple
                                    App Store's or Android Market's
                                    search to find the application.
best font times new roman size 8


E |-3--------5--------6--------5-------3------------|
B |---3--------3--------3--------3-------3----------|
G |------3-------3--------3--------3-------3--------|
D |---------------------------------------------5---| x2
A |-------------------------------------------------|
D |-------------------------------------------------|

E |-3-----5-----6-----5------3-------------------------|
B |---4-----4-----4-----4------4-----------------------|
G |-----3-----3-----3-----3------3---------------------|
D |----------------------------------------------------|
A |----------------------------------------------------|
D |----------------------------------------------------|

E |--18-15----15---------------------------------|
B |---------18-----16/---11--8----8--------------|
G |------------------------------10----8~~-------|
D |-------------------------------------------8--|
A |----------------------------------------------|
D|-----------------------------------------------|

E |-3--------5--------6--------5-------3------------|
B |---3--------3--------3--------3-------3----------|
G |------3-------3--------3--------3-------3--------|
D |---------------------------------------------5---| x2
A |-------------------------------------------------|
D |-------------------------------------------------|

E |-3-----5-----6-----5------3-------------------------|
B |---4-----4-----4-----4------4-----------------------|
G |-----3-----3-----3-----3------3---------------------|
D |----------------------------------------------------|
A |----------------------------------------------------|
D |----------------------------------------------------|

E |--10-----8----6-------------------------------|
B |-----11---11---11—11--8---10b-----------------|
G |--------0----0-----0--------12----------------|
D |----------------------------------------------|
A |----------------------------------------------|
D |----------------------------------------------|

E |---------------------------------------------------------------------|
B |---------------------------------------------------------------------|
G |---------------------------------------------------------------------|
D |------------------------------------------------------------------10-|b
A |-10—12-13-10—12-13-10---12-13-13—13-12-10—9--------------------------|
D |---------------------------------------------------------------------|


E |------------------------------------------------------|
B |------------------10—11—10h11p10----------------------|
G |---------11-12--------------------------12-11---------|
D |-12-13------------------------------------------13-12-|
A |------------------------------------------------------|
D |------------------------------------------------------|

E |-------------------------------------------------------------------|
B |----------------------------------------------------------------17-|b
G |-15—17-19-15---17-19-15—19-19b—19-17-15--14------------------------|
D |-------------------------------------------------------------------|
A |-------------------------------------------------------------------|
D |-------------------------------------------------------------------|

E |----------------------------------------------------------|
B |------------15-16-19—16h19p16-15--------------------------|
G |14-15-17---------------------------------17-15-14---------|
D |-------------------------------------------------------16-|
A |----------------------------------------------------------|
D |----------------------------------------------------------|

E |----------------------------------------------|
B |------------13—15-12-16-13-18/20-16-18b-------|
G |-8—10/12--12----------------------------------|
D |----------------------------------------------|
A |----------------------------------------------|
D |----------------------------------------------|

E |-----------------------8-10-6-8b--------------|
B |------8—10-7-11-8-----------------------------|
G |--5/7--7--------------------------------------|
D |-8--------------------------------------------|
A |----------------------------------------------|
D |----------------------------------------------|

E |-------------------------------------------------------------|
B |------------13—15-18-15h18p15p13-----------------------------|
G |-12-14-15------------------------------15-14-12-14-----------|
D |----------------------------------------------------------15-|
A |-------------------------------------------------------------|
D |-------------------------------------------------------------|

E |-13-------------------------------------------|
B |----16-15-13----------------------------------|
G |---------------15-14-12—11—5b—t10b------------|
D |----------------------------------------------|
A |----------------------------------------------|
D |----------------------------------------------|

E |----------------------------------------------|
B |-13b11br-----------------------11b—10-11-10---|
G |-----------14---12-----------12---------------|
D |--------------------10-12-13------------------|
A |----------------------------------------------|
D |----------------------------------------------|

E |---------------------------------------------|
B |---------------------------------------------|
G |---------------------------------------------|
D |-----------------------------000-------------|
A |--3-5-6-1-3-5-0-1-3-----000------------------|
D |------------------------4---000--------------|

E |---------------------------------------------|
B |---------------------------------------------|
G |---------------------------------------------|
D |---------------------------------------------|
A |-3-5-6-1-3-5-0-1-3-1-0-----------0-----------|
D |-----------------------------5-4-0-4---------|

E |---------------------------------------------|
B |---------------------------------------------|
G |---------------------------------------------|
D |-----------------------------000-------------|
A |--3-5-6-1-3-5-0-1-3-----000------------------|
D |------------------------4---000--------------|


E |--------------------------------------5------|
B |------------------------------4-7-8----------|
G |---------------------------------------------|
D |-----------------------1-3-5-----------------|
A |-3-5-6-1-3-5-0-1-3---------------------------|
D |---------------------------------------------|

E |-3--------5--------6--------5-------3------------|
B |---3--------3--------3--------3-------3----------|
G |------3-------3--------3--------3-------3--------|
D |---------------------------------------------5---| x2
A |-------------------------------------------------|
D |-------------------------------------------------|

E |-3-----5-----6-----5------3-------------------------|
B |---4-----4-----4-----4------4-----------------------|
G |-----3-----3-----3-----3------3---------------------|
D |----------------------------------------------------|
A |----------------------------------------------------|
D |----------------------------------------------------|

E |--10-----8----6-------------------------------|
B |-----11---11---11—11--8---10b-----------------|
G |--------0----0-----0--------12----------------|
D |----------------------------------------------|
A |----------------------------------------------|
D |----------------------------------------------|

E |-3--------5--------6--------5-------3------------|
B |---3--------3--------3--------3-------3----------|
G |------3-------3--------3--------3-------3--------|
D |---------------------------------------------5---| x2
A |-------------------------------------------------|
D |-------------------------------------------------|

E |-3-----5-----6-----5------3-------------------------|
B |---4-----4-----4-----4------4-----------------------|
G |-----3-----3-----3-----3------3---------------------|
D |----------------------------------------------------|
A |----------------------------------------------------|
D |----------------------------------------------------|

E |--18-15----15---------------------------------|
B |---------18-----16/---11--8----8--------------|
G |------------------------------10----8~~-------|
D |-------------------------------------------8--|
A |----------------------------------------------|
D |----------------------------------------------|

E |-14b14b-----------------------------------------|
B |----------15b-15-13-11-13-11--------------------|
G |-----------------------------------14-12--------|
D |------------------------------------------------|
A |------------------------------------------------|
D |------------------------------------------------|

E |------------------------------------------------------------------------------------------|
B |-----------13-15-16-15-13-----------------------------------------------------------------|
G |11-12-14-------------------15-14-12-------------------------------------------------------|
D |-----------------------------------------16-13-12---------------------12-13-15-13-12------|
A |------------------------------------------------------15-13-12-13-15------------------15--|
D |------------------------------------------------------------------------------------------|

E |------------------------------------------------|
B |------------------------------------------------|
G |------------------------------------------------|
D |-12---------------------------------------------|
A |-----15-13-15-13-12/10-12-10--------------------|
D |------------------------------------------------|

E |----------------------------------------------|
B |----------------------------------------------|
G |----------------------------------------------|
D |----------------------------------------------|
A |-9--------------------------------------------|
D |---13-12-10-12-13-12-0------------------------|

E |---5#-----------------------------------------|
B |----------------------------------------------|
G |----------------------------------------------|
D |----------------------------------------------|
A |----------------------------------------------|
D |----------------------------------------------|


E |-14b---------------------------------------------|
B |------15b--------------------------10-11-10-11/8-|
G |-----------14b—11b—8-7-8-11----------------------|
D |-------------------------------------------------|
A |-------------------------------------------------|
D |-------------------------------------------------|

E |----------------------------------------------|
B |----------------------------------------------|
G |-11-8-7-8-10-7-8-7-8-7------------------------|
D |-----------------------------10-8-7-8-7-8-----|
A |----------------------------------------------|
D |----------------------------------------------|


E |----------------------------------------------|
B |----------------------------------------------|
G |----------------------------------------------|
D |-8b—7-8-7-5-7---------------------------------|
A |-------------------9~-------------------------|
D |----------------------------------------------|

E |-------------------------------------------------------------------------|
B |-------------15---13-15-11-10-15-13-15-11-15-10-15-13-15-11-15-10-11-10--|
G |-17/---------------------------------------------------------------------|
D |-19/---12----------------------------------------------------------------|
A |-17/---------------------------------------------------------------------|
D |-------------------------------------------------------------------------|

E |-----------------------------5---------------|
B |----10-13-10-13-10----7--7-------------------|
G |-12-------------------5-8-----8-x-8-11-------|
D |---------------------------------------------|
A |---------------------------------------------|
D |---------------------------------------------|

E |----8-------------------11-------------------14-|
B |-10-10-------------13---13------------16----16--|
G |--------11-x-11-14--------14-14h17-----------17-|
D |------------------------------------------------|
A |------------------------------------------------|
D |------------------------------------------------|

E |------------17-18b-----------------------------|
B |---------19---------15b—13---------------------|
G |-17h20------------------------15---------------|
D |-----------------------------------------------|
A |-----------------------------------------------|
D |-----------------------------------------------|

E |--------------------------------------------------------|
B |-13-------------------13-15-16-----16p15p13-------------|
G |----15-14-12-14-15------------11-------------15p14p12---|
D |--------------------------------------------------------|
A |--------------------------------------------------------|
D |--------------------------------------------------------|

E |-------------------------------------------------------|
B |-------------------------------------------------------|
G |-------------------------------------------------------|
D |-16-13-12-13-16-13-12-----12---------------------12-13-|
A |-----------------------------15-----15-13-12-13-15-----|
D |-------------------------------------------------------|

E |-----------------------------------------------14-|b
B |-------------13-------------------13-15-16--------|
G |-12h14h15---15-14-12-14-15------------------------|
D |--------------------------------------------------|
A |--------------------------------------------------|
D |--------------------------------------------------|


E |-----15-14-15-17—17-18-17---------------------|
B |-15-------------------------------------------|
G |----------------------------------------------|
D |----------------------------------------------|
A |----------------------------------------------|
D |----------------------------------------------|

E |-------------------------------------------------|
B |-20-19-20-16-20-19-20-16-20-19-20-16-15-13-15-13-|
G |-------------------------------------------------|
D |-------------------------------------------------|
A |-------------------------------------------------|
D |-------------------------------------------------|

E |---------------------------------------------|
B |---------------------------------------------|
G |-15-14-15-12-14-12-14-15-14-12-12-17---------|
D |---------------------------------------------|
A |---------------------------------------------|
D |---------------------------------------------|

E |---------------------------------------------11-14-15-14-11-|
B |---------------------------------13-15-16-------------------|
G |-15-17-15-14-12-12-14-15------------------------------------|
D |------------------------------------------------------------|
A |------------------------------------------------------------|
D |------------------------------------------------------------|

E|-----11/17/18/15-17-15-(17-18-17-20-17-22)-x4------|
B|-15------------------------------------------------|
G|---------------------------------------------------|
D|---------------------------------------------------|
A|---------------------------------------------------|
D|---------------------------------------------------|

E|---------------------------------------------------|
B|---------5----------7b-5----5----------------------|
G|-2b-7b---7-4------------7----6-7-6-4---------------|
D|----------------7b-----------------------5-7-8-7-5-|
A|---------------------------------------------------|
D|---------------------------------------------------|

E|-------------------------------------------------------------|
B|----------------------------------------------------------17-|
G|---------18-19-18-16----16-------19-16-----16-19-------------|
D|---5/19----------------19----19b----------19-----------------|
A|-7-----------------------------------------------------------|
D|-------------------------------------------------------------|

E|------------------------------------------------------------------------------------|
B|-20-17----------------------17-22-17-20-22-20-17------------------------------------|
G|---------19-16------16-19----------------------------19-21-19-18-19-18-16-18-16-15--|
D|-----------------19-----------------------------------------------------------------|
A|------------------------------------------------------------------------------------|
D|------------------------------------------------------------------------------------|

E|------------------------------------------------------------------------------|
B|---------------------14-15-14-----17-15-14-----14-15—20-15/20-22-24/22-20/15--|
G|-16-15-----15-16-------------16-------------16--------------------------------|
D|---------17-------------------------------------------------------------------|
A|------------------------------------------------------------------------------|
D|------------------------------------------------------------------------------|

E|----------------------17-20-20b-19-17-15-----17-15--------15-------------------------------------|
B|-19-17-15-17-19---------------------------19--------19-17-----19-17-15-19-17-15------------------|
G|---------------------------------------------------------------------------------------------17--|
D|-------------------------------------------------------------------------------------------------|
A|-------------------------------------------------------------------------------------------------|
D|-------------------------------------------------------------------------------------------------|

E|-----------------------------------------------------------------------------------|
B|-17-15---------15------------------------------------------------------------------|
G|---------17-16-----17-16-14-17-16-14----16-14---------14---------------------------|
D|--------------------------------------------17---------17-16----17-16-14-17-16-14--|
A|-----------------------------------------------------------------------------------|
D|-----------------------------------------------------------------------------------|

E|-----------------------------------------------------------------------------------------------|
B|-----------------------------------------------------------------------------------------------|
G|-----------------------------------------------------------------------------------------------|
D|----16-14--------14----------------------------------------------------------------------------|
A|-17---------17-15---17-15-14-17-15-14-13-15-14-13-12-14-12-10-12-10----------------------------|
D|----------------------------------------------------------------------------------------14-12--|

E|--------------------------------------------------------------------------------17b-15-17-15---------|
B|----------------------------17-15----------------------------------------15b-----------------17-17~--|
G|-----------------14-15-16--------16-15-16-15-14-------------14---------------------------------------|
D|---------14-17----------------------------------------17-14-17-----17--------------------------------|
A|-----17----------------------------------------------------------------------------------------------|
D|-14--------------------------------------------------------------------------------------------------|

E|---------------------------------------------------------------------------------|
B|---------------------------------------------------------------------------------|
G|-7--------7--------7/0—14-11-12-14-12-11-14-11-12-14-12-11-14-11-12-14-12-11-12--|b
D|-7--------7--------7/0-----------------------------------------------------------|
A|-5--------5--------5/0-----------------------------------------------------------|
D|---00000--00000------------------------------------------------------------------|

E|------------------------------------------------------------------------------------------------------|
B|------------------------------------------------------------------------------------------------------|
G|-7--------7---------7/0---17-14-15-17-15-14-19-14-15-17-15-14-19-14-15-17-15-14-19-14-15-17-15-14-17--|b
D|-7--------7---------7/0-------------------------------------------------------------------------------|
A|-5--------5---------5/0-------------------------------------------------------------------------------|
D|---00000--00000---------------------------------------------------------------------------------------|

E|--------------------------------------------------------------------------------------------------------|
B|----------------------------19-15-16-19-16-15-20-16-19-20-19-16-19-15-16-19-16-15-20-16-19-20-19-16-19--|b
G|-7---------7---------7/0--------------------------------------------------------------------------------|
D|-7---------7---------7/0--------------------------------------------------------------------------------|
A|-5---------5---------5/0--------------------------------------------------------------------------------|
D|---00000---00000----------------------------------------------------------------------------------------|


E|---------------------------17-14-15-17-15-14-18-14-15-17-15-14-18-14-15-17-15-14-18-14-15-17-15-14-18-14-15-17--|
B|----------------------------------------------------------------------------------------------------------------|
G|-7---------7---------7/0----------------------------------------------------------------------------------------|
D|-7---------7---------7/0----------------------------------------------------------------------------------------|gradually get faster
A|-5---------5---------5/0----------------------------------------------------------------------------------------|
D|---00000---00000------------------------------------------------------------------------------------------------|

E|-15-14-18-14-15-17-15-14-18-14-15-17-15-14-18-14-15-17-15-14-18-14-15-17-15-14-18-14-15-17-15-14--|
B|--------------------------------------------------------------------------------------------------|
G|--------------------------------------------------------------------------------------------------|
D|--------------------------------------------------------------------------------------------------|
A|--------------------------------------------------------------------------------------------------|
D|--------------------------------------------------------------------------------------------------|

E|-17b---------------------------------------------------------------------------------------|
B|-----15-16-15-13-15-13-------------------13—15-16-15-13--------------------13-15-16-15-13--|
G|----------------------------15-14-12-13-14---------------------15-14-12-14-15--------------|
D|-------------------------------------------------------------------------------------------|
A|-------------------------------------------------------------------------------------------|
D|-------------------------------------------------------------------------------------------|

E|----------------------------------------------------------------------------------------------------------|
B|--------------------13-15-16-15-13------------------------------------------------------------------------|
G|-15-14-12-14-15-------------------15-14-12-----12-14-15-17-15-19-17-15-14-15-14-----------14-15-14-15-14--|
D|---------------------------------------------------16-------------------------------------------17-16-17--|
A|----------------------------------------------------------------------------------------------------------|
D|----------------------------------------------------------------------------------------------------------|

E|------------------------------------------------------------------------------------------|
B|--------------------------------------------------------------------------------15h16p15--|
G|---------15-17-15-17-15/19p17-20-19p17-15-17-15------------15-17------------15-14-12------|
D|-17-16------------------------------------------------------19-17-19----------------------|
A|------------------------------------------------------------------------------------------|
D|------------------------------------------------------------------------------------------|

E|------------------------------------------------------------------------------------------|
B|------------------------------------------------------------------------------------------|
G|------------------------------------------------------------------------------------------|
D|-15-12-15-16-15-12/10-12-10--10-----------------------------------------------------------|
A|-----------------------------------13---13-12-10-10-9--------------------0---3---6---9----|
D|----------------------------------------------------------13-12—10-8-7-0--1---4---7---10--|


E|----20b---------|
B|----------------|
G|----------------|
D|---------12/0---|
A|---------12/0—--|
D|-0-------12/0---|

E |---------------------------------------------------------------------|
B |---------------------------------------------------------------------|
G |---------------------------------------------------------------------|
D |------------------------------------------------------------------10-|b
A |-10—12-13-10—12-13-10---12-13-13—13-12-10—9--------------------------|
D |---------------------------------------------------------------------|


E |------------------------------------------------------|
B |------------------10—11—10h11p10----------------------|
G |---------11-12--------------------------12-11---------|
D |-12-13------------------------------------------13-12-|
A |------------------------------------------------------|
D |------------------------------------------------------|

E |-------------------------------------------------------------------|
B |----------------------------------------------------------------17-|b
G |-15—17-19-15---17-19-15—19-19b—19-17-15--14------------------------|
D |-------------------------------------------------------------------|
A |-------------------------------------------------------------------|
D |-------------------------------------------------------------------|

E |----------------------------------------------------------|
B |------------15-16-19—16h19p16-15--------------------------|
G |14-15-17---------------------------------17-15-14---------|
D |-------------------------------------------------------16-|
A |----------------------------------------------------------|
D |----------------------------------------------------------|

E |----------------------------------------------|
B |------------13—15-12-16-13-18/20-16-18b-------|
G |-8—10/12--12----------------------------------|
D |----------------------------------------------|
A |----------------------------------------------|
D |----------------------------------------------|

E |-----------------------8-10-6-8b--------------|
B |------8—10-7-11-8-----------------------------|
G |--5/7--7--------------------------------------|
D |-8--------------------------------------------|
A |----------------------------------------------|
D |----------------------------------------------|

E |-------------------------------------------------------------|
B |------------13—15-18-15h18p15p13-----------------------------|
G |-12-14-15------------------------------15-14-12-14-----------|
D |----------------------------------------------------------15-|
A |-------------------------------------------------------------|
D |-------------------------------------------------------------|

E |-13-------------------------------------------|
B |----16-15-13----------------------------------|
G |---------------15-14-12—11—5b—t10b------------|
D |----------------------------------------------|
A |----------------------------------------------|
D |----------------------------------------------|

E |-----------------------------------------------------------------------|
B |-13b11br-----------------------11b—10-11-10----------------------------|
G |-----------14---12-----------12------------------12-11-----------------|
D |--------------------10-12-13----------------------------13-12----------|
A |-------------------------------------------------------------------12--|
D |--------------------------------------------- -------------------------|

E |-------------------------------------------------------------------|
B |----------------------------------------------------------------17-|b
G |-15—17-19-15---17-19-15—19-19b—19-17-15--14------------------------|
D |-------------------------------------------------------------------|
A |-------------------------------------------------------------------|
D |-------------------------------------------------------------------|

E |----------------------------------------------------------|
B |------------15-16-19—16h19p16-15--------------------------|
G |14-15-17---------------------------------17-15-14---------|
D |-------------------------------------------------------16-|
A |----------------------------------------------------------|
D |----------------------------------------------------------|

E |----------------------------------------------|
B |------------13—15-12-16-13-18/20-16-18b-------|
G |-8—10/12--12----------------------------------|
D |----------------------------------------------|
A |----------------------------------------------|
D |----------------------------------------------|

E |-----------------------8-10-6-8b--------------|
B |------8—10-7-11-8-----------------------------|
G |--5/7--7--------------------------------------|
D |-8--------------------------------------------|
A |----------------------------------------------|
D |----------------------------------------------|

E |-------------------------------------------------------------|
B |------------13—15-18-15h18p15p13-----------------------------|
G |-12-14-15------------------------------15-14-12-14-----------|
D |----------------------------------------------------------15-|
A |-------------------------------------------------------------|
D |-------------------------------------------------------------|

E |-13-------------------------------------------|
B |----16-15-13----------------------------------|
G |---------------15-14-12—11—5b—t10b------------|
D |----------------------------------------------|
A |----------------------------------------------|
D |----------------------------------------------|

E |----------------------------------------------|
B |-13b11br-----------------------11b—10-11-10---|
G |-----------14---12-----------12---------------|
D |--------------------10-12-13------------------|
A |----------------------------------------------|
D |----------------------------------------------|

E |---------------------------------------------|
B |---------------------------------------------|
G |---------------------------------------------|
D |-----------------------------000-------------|
A |--3-5-6-1-3-5-0-1-3-----000------------------|
D |------------------------4---000--------------|

E |---------------------------------------------|
B |---------------------------------------------|
G |---------------------------------------------|
D |---------------------------------------------|
A |-3-5-6-1-3-5-0-1-3-1-0-----------0-----------|
D |-----------------------------5-4-0-4---------|

E |---------------------------------------------|
B |---------------------------------------------|
G |---------------------------------------------|
D |-----------------------------000-------------|
A |--3-5-6-1-3-5-0-1-3-----000------------------|
D |------------------------4---000--------------|


E|------------------------------------------------------------------------------------------|
B|-----------------------------------------------------------------------13-16-13-15-16-15--|
G|-----------------------------------------------------------11-12-15-----------------------|
D|---------------------------------------10-12-13-12-13-------------------------------------|
A|-----------------------------9-10-12------------------------------------------------------|
D|--7-8-9-10-10-11-12-13--------------------------------------------------------------------|

E |---------------------------------------------|
B |---------------------------------------------|
G |---------------------------------------------|
D |-----------------------------000-------------|
A |--3-5-6-1-3-5-0-1-3-----000------------------|
D |------------------------4---000--------------|

E |---------------------------------------------|
B |---------------------------------------------|
G |---------------------------------------------|
D |---------------------------------------------|
A |-3-5-6-1-3-5-0-1-3-1-0-----------0-----------|
D |-----------------------------5-4-0-4---------|

E |---------------------------------------------|
B |---------------------------------------------|
G |---------------------------------------------|
D |-----------------------------000-------------|
A |--3-5-6-1-3-5-0-1-3-----000------------------|
D |------------------------4---000--------------|

E|--------------------------------------------------------------------------------------------------|
B|------------------------------------------7-8-10—8-11-8—8-11-8---11-3-11---11-13-11---------------|
G|-----------------------------------5-7-8-------------------10--------10----------12-----------12--|
D|----------------------------4-5-7-----------------------------------------------------------------|
A|-3-5-6-1-3-5-0-1-3-5-6----------------------------------------------------------------------------|
D|--------------------------------------------------------------------------------------------------|

E|----------------------------------------------------------------------------------------|
B|-13-15-13-----13-15-13----15-18-15----15-18-15-----18-20-18---18-20-18------------------|
G|-------------15-------------15-----------17-------------17------------19------------19--|
D|----------------------------------------------------------------------------------------|
A|----------------------------------------------------------------------------------------|
D|----------------------------------------------------------------------------------------|

E|-15-18-15----15-18-15----18-20-18---18-20-18----20-22-20----20-22-20---------------------|
B|------------18-------------18-----------20------------20-----------23------------23-20~--|
G|-----------------------------------------------------------------------------------------|
D|-----------------------------------------------------------------------------------------|
A|-----------------------------------------------------------------------------------------|
D|-----------------------------------------------------------------------------------------|

E|-17b-15b-20b-20~-22b-23b-23b---------------------------------|
B|-------------------------------------------------------------|
G|--------------------------------------------6---7------------|
D|---------------------------------------17/--6--7--5----------|
A|---------------------------------------17/--4--5--5----------|
D|---------------------------------------17/---------5---------|
comments
We did not receive enough feedback on this tab! Please rate:
1 2 3 4 5
2 comments total.
0 reply
BlisteringDDj wrote on May 23 2008, 05:33 am

Don't confuse Racer X with Paul Gilbert. This is a Racer X song........

0 reply
Markus93 wrote on April 12 2009, 04:49 pm

what the **** is this?!

I want to post or [tab]
guest
You may want to rate the tab now too:
select rating
Please do not post tabs as comments. Select "correction" instead!