Oops, an error
Loading. Please wait.

Band On The Run Tab

ver3
ver3

Whole song

Interactive

More versions @911Tabs.com
955 views 3 this week
no commentswrite comment
1 2 3 4 5
please rate
Autoscroll
+/-
esc
set tempo
stop
Difficulty
intermediate
Hey! There's an official Ultimate Guitar app which is ideal
for learning songs when you're away from computer. Get the app
WARNING: You are trying to view
                                    content from Ultimate-Guitar.com
                                    in an unauthorized application,
                                    which is prohibited.

                                    Please use an official Ultimate
                                    Guitar Tabs application for iPhone,
                                    iPad or Android to access legitimate
                                    chords, guitar, bass, and drum tabs
                                    from Ultimate-Guitar.com database.

                                    Type "ultimate guitar tabs" in Apple
                                    App Store's or Android Market's
                                    search to find the application.
BAND ON THE RUN

As recorded by Paul McCartney and Wings

(From the 1974 Album BAND ON THE RUN)

Tablature (Tab) for Guitar

Transcribed by cbliss66@aol.com

Words and Music by Paul McCartney
Arranged by Wings




GIII

 x x 5 4 3 x  Dadd9

 x x 0 5 4 4  



 Gtr I (E A D G B E) - 'Overdriven Gtr.'

 Gtr II (E A D G B E) - 'Clean Electric'

 Gtr III (E A D G B E) - 'Synth'

 Gtr IV (E A D G B E) - 'Distortion Gtr.'

 Gtr V (E A D G B E) - 'Steel Acoustic Gtr.'

 Gtr VI (D G D G B D) - 'Slide Gtr with slap-back echo'




 Intro
  Moderately Slow Rock Q=80
                           Dmaj7
 4/4
  Gtr I
                               ~~~
  H     a  E  E  a E E     Q  +H.
|------10h12-10\-5h7-5\-||-2--(2)------|
|------10h12-10\-5h7-5\-||-2--(2)------|
|-----------------------||-------------|
|-----------------------||-------------|
|-----------------------||-------------|
|-----------------------||-------------|
|
| Gtr II
| W                        W
|-----------------------||-2-----------|
|-----------------------||-2-----------|
|-----------------------||-2-----------|
|-----------------------||-0-----------|
|-----------------------||-------------|
|-----------------------||-------------|
|
| Gtr III
| W                        W
|-----------------------||-------------|
|-----------------------||-------------|
|-----------------------||-------------|
|-----------------------||-------------|
|-----------------------||-------------|
|-----------------------||-------------|


  A/D                                          G6
                                                      ~~~~
   H                       E.       S  e   e     Q   +H.
|----------------------------------15s14--10-|-!12--(12)----|
|----------------------------------15s14--10-|-!12--(12)----|
|--------------------------------------------|--------------|
|--------------------------------------------|--------------|
|--------------------------------------------|--------------|
|--------------------------------------------|--------------|
|
|  S  S  S  S  S  S  S  S  S  S  S  S  Q         W
|--5h=7p=5h=7p=5h=7p=5h=7p=5h=7p=5h=7p=5-----|---0----------|
|--5-----------------------------------------|---0----------|
|--6-----------------------------------------|---0----------|
|--0-----------------------------------------|---0----------|
|--------------------------------------------|--------------|
|--------------------------------------------|---3----------|
|  W
|
|  S  S  S  S  S  S  S  S  S  S  S  S  Q         W
|-17h19p17h19p17h19p17h19p17h19p17h19p17\----|--------------|
|--------------------------------------------|--------------|
|--------------------------------------------|--------------|
|--------------------------------------------|--------------|
|--------------------------------------------|--------------|
|--------------------------------------------|--------------|


  G                                             Dmaj7
                                                                  ~~~~~
   W                                          a  E  E  a E E  Q  +Q
|------------------------------------------|-10h12-10\-5h7-5\-2--(2)--|
|------------------------------------------|-10h12-10\-5h7-5\-2--(2)--|
|------------------------------------------|--------------------------|
|------------------------------------------|--------------------------|
|------------------------------------------|--------------------------|
|------------------------------------------|--------------------------|
|
|  S  S  S  S  S  S  S  S  S  S  S  S  Q         W
|--3h=5p=3h=5p=3h=5p=3h=5p=3h=5p=3h=5p=3---|-----2--------------------|
|--3---------------------------------------|-----2--------------------|
|--4---------------------------------------|-----2--------------------|
|--5---------------------------------------|-----0--------------------|
|------------------------------------------|--------------------------|
|------------------------------------------|--------------------------|
|  W
|
|  S  S  S  S  S  S  S  S  S  S  S  S  Q         W
|-15h17p15h17p15h17p15h17p15h17p15h17p15\--|--------------------------|
|------------------------------------------|--------------------------|
|------------------------------------------|--------------------------|
|------------------------------------------|--------------------------|
|------------------------------------------|--------------------------|
|------------------------------------------|--------------------------|


  A/D
 ~~~~~
  +H                       E.       S  e   e
|-(2)------------------------------15s14--10--|
|-(2)------------------------------15s14--10--|
|---------------------------------------------|
|---------------------------------------------|
|---------------------------------------------|
|---------------------------------------------|
|
|  S  S  S  S  S  S  S  S  S  S  S  S  Q
|--5h=7p=5h=7p=5h=7p=5h=7p=5h=7p=5h=7p=5------|
|--5------------------------------------------|
|--6------------------------------------------|
|--0------------------------------------------|
|---------------------------------------------|
|---------------------------------------------|
|  W
|
|  S  S  S  S  S  S  S  S  S  S  S  S  Q
|-17h19p17h19p17h19p17h19p17h19p17h19p17\-----|
|---------------------------------------------|
|---------------------------------------------|
|---------------------------------------------|
|---------------------------------------------|
|---------------------------------------------|


  G6               G
         ~~~~
    Q   +H.         W
|-!12--(12)------|------------------------------------------|
|-!12--(12)------|------------------------------------------|
|----------------|------------------------------------------|
|----------------|------------------------------------------|
|----------------|------------------------------------------|
|----------------|------------------------------------------|
|
|   W               S  S  S  S  S  S  S  S  S  S  S  S  Q
|---0------------|--3h=5p=3h=5p=3h=5p=3h=5p=3h=5p=3h=5p=3---|
|---0------------|--3---------------------------------------|
|---0------------|--4---------------------------------------|
|---0------------|--5---------------------------------------|
|----------------|------------------------------------------|
|---3------------|------------------------------------------|
|                   W
|
|   W               S  S  S  S  S  S  S  S  S  S  S  S  Q
|----------------|-15h17p15h17p15h17p15h17p15h17p15h17p15\--|
|----------------|------------------------------------------|
|----------------|------------------------------------------|
|----------------|------------------------------------------|
|----------------|------------------------------------------|
|----------------|------------------------------------------|


  Dmaj7                          Gm
   E.  S  S  S  E  +Q.    e    a  q   H.
|-15--14p12-12s10-(10)---10-|----12--15-----|
|-15--14p12-12s10-(10)------|-10h11--15-----|
|---------------------------|---------------|
|---------------------------|---------------|
|---------------------------|---------------|
|---------------------------|---------------|
|
|  W                              W
|--2------------------------|-----3---------|
|--2------------------------|-----3---------|
|--2------------------------|-----3---------|
|--0------------------------|-----5---------|
|---------------------------|-----5---------|
|---------------------------|-----3---------|
|
|  W                              W
|---------------------------|---------------|
|---------------------------|---------------|
|---------------------------|---------------|
|---------------------------|---------------|
|---------------------------|---------------|
|---------------------------|---------------|


  Dmaj7                           Gm
   E.  S  S  S  E  +Q   E  e    a  Q    a    H.
|-15--14p12-12s10-(10)----10-|-10h12--(12)/-15-------||
|-15--14p12-12s10-(10)----10-|-10h11--(11)/-15-------||
|----------------------------|-----------------------||
|----------------------------|-----------------------||
|----------------------------|-----------------------||
|----------------------------|-----------------------||
|
|  W                               W
|--2-------------------------|-----3-----------------||
|--2-------------------------|-----3-----------------||
|--2-------------------------|-----3-----------------||
|--0-------------------------|-----5-----------------||
|----------------------------|-----5-----------------||
|----------------------------|-----3-----------------||
|
|  W                               W
|----------------------------|-----------------------||
|----------------------------|-----------------------||
|----------------------------|-----------------------||
|----------------------------|-----------------------||
|----------------------------|-----------------------||
|----------------------------|-----------------------||


 1st Verse
  Dmaj7                  A/D
                 ~~
  Q.    a  a  E  Q  Q     W
|------14h15p14-14-----|------------------------------------------|
|----------------------|------------------------------------------|
|----------------------|------------------------------------------|
|----------------------|------------------------------------------|
|----------------------|------------------------------------------|
|----------------------|------------------------------------------|
|
| W                       S  S  S  S  S  S  S  S  S  S  S  S  Q
|-2--------------------|--5h=7p=5h=7p=5h=7p=5h=7p=5h=7p=5h=7p=5---|
|-2--------------------|--5---------------------------------------|
|-2--------------------|--6---------------------------------------|
|-0--------------------|--0---------------------------------------|
|----------------------|------------------------------------------|
|----------------------|------------------------------------------|
|                         W
|
| W                       S  S  S  S  S  S  S  S  S  S  S  S  Q
|----------------------|-17h19p17h19p17h19p17h19p17h19p17h19p17\--|
|----------------------|------------------------------------------|
|----------------------|------------------------------------------|
|----------------------|------------------------------------------|
|----------------------|------------------------------------------|
|----------------------|------------------------------------------|


        G6
            ~~~~
   a  a  E  H..          W
|-12h14p12-12---------|------------------------------------------|
|---------------------|------------------------------------------|
|---------------------|------------------------------------------|
|---------------------|------------------------------------------|
|---------------------|------------------------------------------|
|---------------------|------------------------------------------|
|
|        W               S  S  S  S  S  S  S  S  S  S  S  S  Q
|--------0------------|--3h=5p=3h=5p=3h=5p=3h=5p=3h=5p=3h=5p=3---|
|--------0------------|--3---------------------------------------|
|--------0------------|--4---------------------------------------|
|--------0------------|--5---------------------------------------|
|---------------------|------------------------------------------|
|--------3------------|------------------------------------------|
|                        W
|
|        W               S  S  S  S  S  S  S  S  S  S  S  S  Q
|---------------------|-15h17p15h17p15h17p15h17p15h17p15h17p15\--|
|---------------------|------------------------------------------|
|---------------------|------------------------------------------|
|---------------------|------------------------------------------|
|---------------------|------------------------------------------|
|---------------------|------------------------------------------|


        Dmaj7           A/D
            ~~
   a  a  E  H    Q.      H.                                  E  a  S S
|-10h12p10-10---------|-----------------------------------------9h10p9s==|
|---------------------|--------------------------------------------------|
|---------------------|--------------------------------------------------|
|---------------------|--------------------------------------------------|
|---------------------|--------------------------------------------------|
|---------------------|--------------------------------------------------|
|
|        W               S  S  S  S  S  S  S  S  S  S  S  S  Q
|--------2------------|--5h=7p=5h=7p=5h=7p=5h=7p=5h=7p=5h=7p=5-----------|
|--------2------------|--5-----------------------------------------------|
|--------2------------|--6-----------------------------------------------|
|--------0------------|--0-----------------------------------------------|
|---------------------|--------------------------------------------------|
|---------------------|--------------------------------------------------|
|                        W
|
|        W               S  S  S  S  S  S  S  S  S  S  S  S  Q
|---------------------|-17h19p17h19p17h19p17h19p17h19p17h19p17\----------|
|---------------------|--------------------------------------------------|
|---------------------|--------------------------------------------------|
|---------------------|--------------------------------------------------|
|---------------------|--------------------------------------------------|
|---------------------|--------------------------------------------------|


  G6          G                                               Dmaj7
  H    H       H.                                  E  a S S   H    H
|-7---------|-----------------------------------------7h9p7s|=5---------|
|-----------|-----------------------------------------------|-----------|
|-----------|-----------------------------------------------|-----------|
|-----------|-----------------------------------------------|-----------|
|-----------|-----------------------------------------------|-----------|
|-----------|-----------------------------------------------|-----------|
|
| W            S  S  S  S  S  S  S  S  S  S  S  S  Q          W
|-0---------|--3h=5p=3h=5p=3h=5p=3h=5p=3h=5p=3h=5p=3--------|-2---------|
|-0---------|--3--------------------------------------------|-2---------|
|-0---------|--4--------------------------------------------|-2---------|
|-0---------|--5--------------------------------------------|-0---------|
|-----------|-----------------------------------------------|-----------|
|-3---------|-----------------------------------------------|-----------|
|              W
|
| W            S  S  S  S  S  S  S  S  S  S  S  S  Q          W
|-----------|-15h17p15h17p15h17p15h17p15h17p15h17p15\-------|-----------|
|-----------|-----------------------------------------------|-----------|
|-----------|-----------------------------------------------|-----------|
|-----------|-----------------------------------------------|-----------|
|-----------|-----------------------------------------------|-----------|
|-----------|-----------------------------------------------|-----------|


  Gm         Dmaj7      Gm         Dmaj7
  Gtr II
  W          W          W          W
|-3--------|-2--------|-3--------|-2----|
|-3--------|-2--------|-3--------|-2----|
|-3--------|-2--------|-3--------|-2----|
|-5--------|-0--------|-5--------|-0----|
|-5--------|----------|-5--------|------|
|-3--------|----------|-3--------|------|


                         Interlude
  Gm                        C/E     E5      A5
  Gtr I
                                            PM|
   Q   E    E  +Q   Q     E S S S S S S S S e E E
|-15--15/-/18-(18)-----||-------------------------|
|-11--11/-/15-(15)-----||-------------------------|
|----------------------||---5-5-5s4-4-4---2-2-2-x-|
|----------------------||---2-2-2---2-2---2-2-2-x-|
|----------------------||-0-----------------0-0---|
|----------------------||-------------------------|
|
| Gtr II
|                                           PM|
|  W                      E S S S S S S S S e E E
|--3-------------------||-------------------------|
|--3-------------------||-------------------------|
|--3-------------------||---5-5-5s4-4-4---2-2-2-x-|
|--5-------------------||---2-2-2---2-2---2-2-2-x-|
|--5-------------------||-0-----------------0-0---|
|--3-------------------||-------------------------|


    D/F#               Bm/A
  E S S S S S S +S   S E E S S
|-------------------------------|
|-------------------------------|
|---7-7-7-7---7-(7)\-4-4-4-x-x--|
|---4-4-4-4---4-(4)\-0-0-0-x-x--|
|-0---------0----------0--------|
|-------------------------------|
|
| E S S S S S S +S   S E E S S
|-------------------------------|
|-------------------------------|
|---7-7-7-7---7-(7)\-4-4-4-x-x--|
|---4-4-4-4---4-(4)\-0-0-0-x-x--|
|-0---------0----------0--------|
|-------------------------------|


    C/E     E5      A5          D/F#               Bm/AC/E
                    PM|
  E S S S S S S S S e E S S   E S S S S S S +S   S E E S S
|---------------------------|------------------------------|
|---------------------------|------------------------------|
|---5-5-5s4-4-4---2-2-2-x-x-|---7-7-7-7---7-(7)\-4-4-4-5-5-|
|---2-2-2---2-2---2-2-2-x-x-|---4-4-4-4---4-(4)\-0-0-0-2-2-|
|-0-----------------0-0-----|-0---------0----------0-------|
|---------------------------|------------------------------|
|
|                   PM|
| E S S S S S S S S e E S S   E S S S S S S +S   S E E S S
|---------------------------|------------------------------|
|---------------------------|------------------------------|
|---5-5-5s4-4-4---2-2-2-x-x-|---7-7-7-7---7-(7)\-4-4-4-5-5-|
|---2-2-2---2-2---2-2-2-x-x-|---4-4-4-4---4-(4)\-0-0-0-2-2-|
|-0-----------------0-0-----|-0---------0----------0-------|
|---------------------------|------------------------------|


      E5      A5
  S S S S S S E +S  S S S e S      +S
|-----------------------------------------||
|-----------------------------------------||
|-5s4-4-4-----2-(2)-2---------------------||
|-2---2-2-----2-(2)-----2-----------------||
|-----------0-0-(0)---0-------------------||
|-------------------------0-3b3.5==(3)r---||
|
| S S S S S S E +S  S S S e S      +S
|-----------------------------------------||
|-----------------------------------------||
|-5s4-4-4-----2-(2)-2---------------------||
|-2---2-2-----2-(2)-----2-----------------||
|-----------0-0-(0)---0-------------------||
|-------------------------0-3b3.5==(3)r---||


 Synth Solo
     C/E     E5         A5             D/F#               Bm/A
  Gtrs I, II
                        PM|
   E S S S S S S   S  S e E     E   E  S S S S S S +S   S E  E    S  S
|---------------------------------|------------------------------------|
|---------------------------------|------------------------------------|
|----5-5-5s4-4-4------2-2-2-----x-|----7-7-7-7---7-(7)\-4-4--4----x--x-|
|----2-2-2---2-2------2-2-2-----x-|----4-4-4-4---4-(4)\-0-0--0----x--x-|
|--0--------------------0-0-------|-0----------0----------0------------|
|---------------------------------|------------------------------------|
|
| Gtr III
|  H              +Q.        a  E   H.                       S  E    S
|-12-------------(12)-------12s15s|=7-----------------------10s12---15s|
|---------------------------------|------------------------------------|
|---------------------------------|------------------------------------|
|---------------------------------|------------------------------------|
|---------------------------------|------------------------------------|
|---------------------------------|------------------------------------|


     C/E     E5         A5               D/F#               Bm/A    C/E
                        PM|
   E S S S S S S   S  S e E  S S      E  S S S S S S +S   S E  E    S  S
|--------------------------------|-----------------------------------------|
|--------------------------------|-----------------------------------------|
|----5-5-5s4-4-4------2-2-2--x-x-|-------7-7-7-7---7-(7)\-4-4--4----5--5---|
|----2-2-2---2-2------2-2-2--x-x-|-------4-4-4-4---4-(4)\-0-0--0----2--2---|
|--0--------------------0-0------|----0----------0----------0--------------|
|--------------------------------|-----------------------------------------|
|
|  H              +Q.        E      a H.                       S  E    S
|-17-------------(17)-------15---|-15s7-----------------------10s12---15s==|
|--------------------------------|-----------------------------------------|
|--------------------------------|-----------------------------------------|
|--------------------------------|-----------------------------------------|
|--------------------------------|-----------------------------------------|
|--------------------------------|-----------------------------------------|


                                           2nd Verse
  C/E  E5      A5                             C/E     E5      A5
                                                              PM|
   S S S S S S E +S  S S S e S      +S      E S S S S S S S S e E E
|----------------------------------------||-------------------------|
|----------------------------------------||-------------------------|
|--5s4-4-4-----2-(2)-2-------------------||---5-5-5s4-4-4---2-2-2-x-|
|--2---2-2-----2-(2)-----2---------------||---2-2-2---2-2---2-2-2-x-|
|------------0-0-(0)---0-----------------||-0-----------------0-0---|
|--------------------------0-3b3.5==(3)r-||-------------------------|
|
|  W                                        W
|-17-------------------------------------||-------------------------|
|----------------------------------------||-------------------------|
|----------------------------------------||-------------------------|
|----------------------------------------||-------------------------|
|----------------------------------------||-------------------------|
|----------------------------------------||-------------------------|


    D/F#               Bm/A        C/E     E5        A5
                                                     PM|
  E S S S S S S +S   S E E S S   E S S S S S S S S   e E   S S
|------------------------------|---------------------------------|
|------------------------------|---------------------------------|
|---7-7-7-7---7-(7)\-4-4-4-x-x-|---5-5-5s4-4-4---2---2-2---x-x---|
|---4-4-4-4---4-(4)\-0-0-0-x-x-|---2-2-2---2-2---2---2-2---x-x---|
|-0---------0----------0-------|-0-------------------0-0---------|
|------------------------------|---------------------------------|
|
| H              E     E E S s   e e   s s s s S s a e S S S S
|----------------------5-5-----|---------------------------------|
|--------------------------5-8-|-0-8-----------------------------|
|------------------------------|-------5-x-5-5---0-7s9-5-7-5-0---|
|------------------------------|---------------------------------|
|------------------------------|---------------------------------|
|------------------------------|---------------------------------|


    D/F#                Bm/A    C/E       E5       A5
  E S S S S S  S +S   S E     E S S   S S  S S S S E   +S  S S  S  e   S      +S
|-----------------------------------|----------------------------------------------|
|-----------------------------------|----------------------------------------------|
|---7-7-7-7----7-(7)\-4-4-----4-5-5-|-5s4--4-4-----2---(2)-2-----------------------|
|---4-4-4-4----4-(4)\-0-0-----0-2-2-|-2----2-2-----2---(2)------2------------------|
|-0---------0-----------0-----------|------------0-0---(0)---0---------------------|
|-----------------------------------|------------------------------0---3b3.5==(3)r-|
|
| E S s e   S  S +S   S S  S  e e     E    S S e   S S +S  S s  S  S S s       S
|-----------------------------------|----------------------------------------------|
|-------7-----/7-(7)--7-0-----7-----|----------7---0-5-(5)-0-----------------------|
|---7-0-7-----/7-(7)------(5)-7-5---|--------7-7-----5-(5)---7-(0)-----5------(0)--|
|-0-4-------4-------------------5---|-----/7-----------------7-----5s7-------------|
|-----------------------------------|----------------------------------------------|
|-----------------------------------|----------------------------------------------|


  C/E E5      A5
  S S S S S S E   +S  S S S e   S      +S
|---------------------------------------------||
|---------------------------------------------||
|-5s4-4-4-----2---(2)-2-----------------------||
|-2---2-2-----2---(2)-----2-------------------||
|-----------0-0---(0)---0---------------------||
|---------------------------0---3b3.5==(3)r---||
|
| E.    S s S S S  S  E   S S E         S
|---------------------------------------------||
|---------------------------------------------||
|---------2-x-x-x--x--x---x-x-----------x-----||
|-2---------x-x-x--x--x---x-x-----------x-----||
|-----------x-x-x--x--x---x-x-----------x-----||
|-----------x-x-x--x--x---x-x-----------x-----||


 Breakdown
  Faster Q=126
                D            C                       D            C
 3/4           4/4
  Gtrs I, II, IV
  E E E E E E   Q.   E +Q    Q    +Q   E E E E E E   Q.   E +Q    Q
|-------------|-----------------|------------------|------------------|
|-------------|-7----7-(7)\--5--|-(5)--------------|-7----7-(7)\--5---|
|-------------|-7----7-(7)\--5--|-(5)--------------|-7----7-(7)\--5---|
|-----------5-|-7----7-(7)\--5--|-(5)------------5-|-7----7-(7)\--5---|
|-----3-5s7---|-5----5-(5)\--3--|-(3)------3-5s7---|-5----5-(5)\--3---|
|-3h5---------|-----------------|------3h5---------|------------------|


                    Bridge
  C                  C               Fmaj7/C           C
  +Q   E E q  E E    W               W                 W
|-----------------||---------------|-----------------|----------------|
|-(5)-------------||---------------|-----------------|----------------|
|-(5)-------------||---------------|-----------------|----------------|
|-(5)-------------||---------------|-----------------|----------------|
|-(3)------3------||-3-------------|-----------------|----------------|
|------3-5----3-5-||---------------|-----------------|----------------|
|
| Gtr V
|  W                 Q  E Q  E E E   E E E E E E E E   E E E Q  E E E
|-----------------||-0--0-0--0-0-0-|-0-0-0-0-0-0-0-0-|-0-0-0-0--0-0-0-|
|-----------------||-1--1-1--1-1-1-|-1-1-1-1-1-1-1-1-|-1-1-1-1--1-1-1-|
|-----------------||-0--0-0--0-0-0-|-2-2-2-2-2-2-2-2-|-0-0-0-0--0-0-0-|
|-----------------||-2--2-2--2-2-2-|-3-3-3-3-3-3-3-3-|-2-2-2-2--2-2-2-|
|-----------------||-3--3-3--3-3-3-|-3-3-3-3-3-3-3-3-|-3-3-3-3--3-3-3-|
|-----------------||---------------|-----------------|----------------|


                   3rd Verse
  Fmaj7/C           C                 Fmaj7/C
  Gtr VI
  W                 W                 W                 H       Q     E  E
|----------------||-----------------|-----------------|-----------------17s=|
|----------------||-----------------|-----------------|-------------/17-----|
|----------------||-----------------|-----------------|---------------------|
|----------------||-----------------|-----------------|---------------------|
|----------------||-----------------|-----------------|---------------------|
|----------------||-----------------|-----------------|---------------------|
|
| E E E Q  E E E    E E E E E E E E   E E E E E E E E   E E E E E E   E  E
|-0-0-0-0--0-0-0-||-0-0-0-0-0-0-0-0-|-0-0-0-0-0-0-0-0-|-0-0-0-0-0-0---0--0--|
|-1-1-1-1--1-1-1-||-1-1-1-1-1-1-1-1-|-1-1-1-1-1-1-1-1-|-1-1-1-1-1-1---1--1--|
|-2-2-2-2--2-2-2-||-0-0-0-0-0-0-0-0-|-2-2-2-2-2-2-2-2-|-2-2-2-2-2-2---2--2--|
|-3-3-3-3--3-3-3-||-2-2-2-2-2-2-2-2-|-3-3-3-3-3-3-3-3-|-3-3-3-3-3-3---3--3--|
|-3-3-3-3--3-3-3-||-3-3-3-3-3-3-3-3-|-3-3-3-3-3-3-3-3-|-3-3-3-3-3-3---3--3--|
|----------------||-----------------|-----------------|---------------------|


  C
  E  E  +E.    S  E  Q    +E     W
|-x-----------------14---(14)\-|----------------|
|---17-(17)---16s15------------|----------------|
|------------------------------|----------------|
|------------------------------|----------------|
|------------------------------|----------------|
|------------------------------|----------------|
|
| Q      E  E     E  E E   E     Q  E E E E E E
|-0------0--0-----0--0-0---0---|-0--0-0-0-0-0-0-|
|-1------1--1-----1--1-1---1---|-1--1-1-1-1-1-1-|
|-0------0--0-----0--0-0---0---|-0--0-0-0-0-0-0-|
|-2------2--2-----2--2-2---2---|-2--2-2-2-2-2-2-|
|-3------3--3-----3--3-3---3---|-3--3-3-3-3-3-3-|
|------------------------------|----------------|


  Fmaj7/C
  W                 W
|-----------------|---------------|
|-----------------|---------------|
|-----------------|---------------|
|-----------------|---------------|
|-----------------|---------------|
|-----------------|---------------|
|
| E E E E E E E E   Q  E Q  E E E
|-0-0-0-0-0-0-0-0-|-0--0-0--0-0-0-|
|-1-1-1-1-1-1-1-1-|-1--1-1--1-1-1-|
|-2-2-2-2-2-2-2-2-|-2--2-2--2-2-2-|
|-3-3-3-3-3-3-3-3-|-3--3-3--3-3-3-|
|-3-3-3-3-3-3-3-3-|-3--3-3--3-3-3-|
|-----------------|---------------|


                   Pre-Chorus
  Em                G                C               Em      C
  Gtr V
  E E E Q  E E E    Q  E E E E E E   Q  E E Q  E E   E E E E E E E E
|-0-0-0-0--0-0-0-||-3--3-3-3-3-3---|-0--0-0-0--0---|-0-0-0---0-0-0---|
|-0-0-0-0--0-0-0-||-0--0-0-0-0-0---|-1--1-1-1--1---|-0-0-0---1-1-1---|
|-0-0-0-0--0-0-0-||-0--0-0-0-0-0---|-0--0-0-0--0---|-0-0-0---0-0-0---|
|-2-2-2-2--2-2-2-||-0--0-0-0-0-0---|-2--2-2-2--2---|-2-2-2---2-2-2---|
|-2-2-2-2--2-2-2-||-2--2-2-2-2-2---|-3--3-3-3--3-3-|-2-2-2---3-3-3-3-|
|-0-0-0-0--0-0-0-||-3--3-3-3-3-3-3-|---------------|-0-0-0-0---------|


  Am              Fmaj7/C          C               Fmaj7/C
  Q  E Q  E E E   E E E Q  E E E   Q  E E Q  E E   Q  E Q  E Q
|-0--0-0--0-0---|-0-0-0-0--0-0-x-|-0--0-0-0--0-0-|-0--0-0--0-0--|
|-1--1-1--1-1---|-1-1-1-1--1-1-x-|-1--1-1-1--1-1-|-1--1-1--1-1--|
|-2--2-2--2-2---|-2-2-2-2--2-2-x-|-0--0-0-0--0-0-|-2--2-2--2-2--|
|-2--2-2--2-2---|-3-3-3-3--3-3-x-|-2--2-2-2--2-2-|-3--3-3--3-3--|
|-0--0-0--0-0-0-|-3-3-3-3--3-3-x-|-3--3-3-3--3-3-|-3--3-3--3-3--|
|---------------|----------------|---------------|--------------|


               Chorus
  Fmaj7/C       C    Fmaj7/C    C     Fmaj7/C    C     Fmaj7/C
  +W            Q  E Q  E E E   E E E Q  E E E   E E E Q  E E E
|-(0)--------||-0--x-0--x-0-0-|-0-0-x-0--0-0-0-|-0-0-x-0--0-0-0-|
|-(1)--------||-1--x-1--x-1-1-|-1-1-x-1--1-1-1-|-1-1-x-1--1-1-1-|
|-(2)--------||-0--x-2--x-2-2-|-0-0-x-2--2-2-2-|-0-0-x-2--2-2-2-|
|-(3)--------||-2--x-3--x-3-3-|-2-2-x-3--3-3-3-|-2-2-x-3--3-3-3-|
|-(3)--------||-3--x-3--x-3-3-|-3-3-x-3--3-3-3-|-3-3-x-3--3-3-3-|
|------------||---------------|----------------|----------------|


  C     Fmaj7/C    C     Fmaj7/C    C        Fmaj7/C C     Fmaj7/C
  E E E Q  E E E   E E E Q  E E E   E E E Q  E E E   E E E Q  E E E
|-0-0-x-0--0-0-0-|-0-0-x-0--0-0-0-|-0-0-x-0--0-0-0-|-0-0-x-0--0-0-0-|
|-1-1-x-1--1-1-1-|-1-1-x-1--1-1-1-|-1-1-x-1--1-1-1-|-1-1-x-1--1-1-1-|
|-0-0-x-2--2-2-2-|-0-0-x-2--2-2-2-|-0-0-x-2--2-2-2-|-0-0-x-2--2-2-2-|
|-2-2-x-3--3-3-3-|-2-2-x-3--3-3-3-|-2-2-x-3--3-3-3-|-2-2-x-3--3-3-3-|
|-3-3-x-3--3-3-3-|-3-3-x-3--3-3-3-|-3-3-x-3--3-3-3-|-3-3-x-3--3-3-3-|
|----------------|----------------|----------------|----------------|


                   4th Verse
  C     Fmaj7/C     C                 Fmaj7/C
  E E E Q  E E E    E E E E E E E E   E E E E E E E E   E E E E E E E E
|-0-0-x-0--0-0-0-||-0-0-0-0-0-0-0-0-|-0-0-0-0-0-0-0-0-|-0-0-0-0-0-0-0-0-|
|-1-1-x-1--1-1-1-||-1-1-1-1-1-1-1-1-|-1-1-1-1-1-1-1-1-|-1-1-1-1-1-1-1-1-|
|-0-0-x-2--2-2-2-||-0-0-0-0-0-0-0-0-|-2-2-2-2-2-2-2-2-|-2-2-2-2-2-2-2-2-|
|-2-2-x-3--3-3-3-||-2-2-2-2-2-2-2-2-|-3-3-3-3-3-3-3-3-|-3-3-3-3-3-3-3-3-|
|-3-3-x-3--3-3-3-||-3-3-3-3-3-3-3-3-|-3-3-3-3-3-3-3-3-|-3-3-3-3-3-3-3-3-|
|----------------||-----------------|-----------------|-----------------|


  C                                 Fmaj7/C
  Q  E E E E E E   Q  E E E E E E   E E E E E E E E   Q  E Q  E E E
|-0--0-0-0-0-0-0-|-0--0-0-0-0-0-0-|-0-0-0-0-0-0-0-0-|-0--0-0--0-0-0-|
|-1--1-1-1-1-1-1-|-1--1-1-1-1-1-1-|-1-1-1-1-1-1-1-1-|-1--1-1--1-1-1-|
|-0--0-0-0-0-0-0-|-0--0-0-0-0-0-0-|-2-2-2-2-2-2-2-2-|-2--2-2--2-2-2-|
|-2--2-2-2-2-2-2-|-2--2-2-2-2-2-2-|-3-3-3-3-3-3-3-3-|-3--3-3--3-3-3-|
|-3--3-3-3-3-3-3-|-3--3-3-3-3-3-3-|-3-3-3-3-3-3-3-3-|-3--3-3--3-3-3-|
|----------------|----------------|-----------------|---------------|


                   2nd Pre-Chorus
  Em                G                C               Em      C
  E E E Q  E E E    Q  E E E E E E   Q  E E Q  E E   E E E E E E E E
|-0-0-0-0--0-0-0-||-3--3-3-3-3-3---|-0--0-0-0--0---|-0-0-0---0-0-0---|
|-0-0-0-0--0-0-0-||-0--0-0-0-0-0---|-1--1-1-1--1---|-0-0-0---1-1-1---|
|-0-0-0-0--0-0-0-||-0--0-0-0-0-0---|-0--0-0-0--0---|-0-0-0---0-0-0---|
|-2-2-2-2--2-2-2-||-0--0-0-0-0-0---|-2--2-2-2--2---|-2-2-2---2-2-2---|
|-2-2-2-2--2-2-2-||-2--2-2-2-2-2---|-3--3-3-3--3-3-|-2-2-2---3-3-3-3-|
|-0-0-0-0--0-0-0-||-3--3-3-3-3-3-3-|---------------|-0-0-0-0---------|


  Am              Fmaj7/C          C               Fmaj7/C
  Q  E Q  E E E   E E E Q  E E E   Q  E E Q  E E   Q  E Q  E Q
|-0--0-0--0-0---|-0-0-0-0--0-0-x-|-0--0-0-0--0-0-|-0--0-0--0-0--|
|-1--1-1--1-1---|-1-1-1-1--1-1-x-|-1--1-1-1--1-1-|-1--1-1--1-1--|
|-2--2-2--2-2---|-2-2-2-2--2-2-x-|-0--0-0-0--0-0-|-2--2-2--2-2--|
|-2--2-2--2-2---|-3-3-3-3--3-3-x-|-2--2-2-2--2-2-|-3--3-3--3-3--|
|-0--0-0--0-0-0-|-3-3-3-3--3-3-x-|-3--3-3-3--3-3-|-3--3-3--3-3--|
|---------------|----------------|---------------|--------------|


             2nd Chorus
  Fmaj7/C     C    Fmaj7/C
  W           Q  E Q  E E E
|-0--------||-0--x-0--x-0-0-|
|-1--------||-1--x-1--x-1-1-|
|-2--------||-0--x-2--x-2-2-|
|-3--------||-2--x-3--x-3-3-|
|-3--------||-3--x-3--x-3-3-|
|----------||---------------|
|
| Gtr VI
| W           W
|----------||---------------|
|----------||---------------|
|----------||---------------|
|----------||---------------|
|----------||---------------|
|----------||---------------|


  C           Fmaj7/C            C       Fmaj7/C
  E E    E     Q     E   E  E     E  E E Q   E E E
|-0-0----x-----0-----0---0--0--|--0--0-x-0---0-0-0---|
|-1-1----x-----1-----1---1--1--|--1--1-x-1---1-1-1---|
|-0-0----x-----2-----2---2--2--|--0--0-x-2---2-2-2---|
|-2-2----x-----3-----3---3--3--|--2--2-x-3---3-3-3---|
|-3-3----x-----3-----3---3--3--|--3--3-x-3---3-3-3---|
|------------------------------|---------------------|
|
| E S  E    S  E  E  E   E  E    +H        H
|---9-10---10-10------------5--|-(5)-----------------|
|----------------10\-8\-/5-(5)-|-(5)-----------------|
|------------------------------|---------------------|
|------------------------------|---------------------|
|------------------------------|---------------------|
|------------------------------|---------------------|


  C           Fmaj7/C            Em    G      C         Em   C      Am
                                3/4
  E E    E     Q     E   E  E     q.   q.     H.        q.   Q  E   H.
|-0-0----x-----0-----0---0--0--|--0----3----|-0-------|-0----0----|-0-----||
|-1-1----x-----1-----1---1--1--|--0----0----|-1-------|-0----1----|-1-----||
|-0-0----x-----2-----2---2--2--|--0----0----|-0-------|-0----0----|-2-----||
|-2-2----x-----3-----3---3--3--|--2----0----|-2-------|-2----2----|-2-----||
|-3-3----x-----3-----3---3--3--|--2----2----|-3-------|-2----3--3-|-0-----||
|------------------------------|--0----3----|---------|-0---------|-------||
|
| E S  E    S  E  E  E   E  E    +H.          W         W           W
|---9-10---10-10------------5--|-(5)--------|---------|-----------|-------||
|----------------10\-8\-/5-(5)-|-(5)--------|---------|-----------|-------||
|------------------------------|------------|---------|-----------|-------||
|------------------------------|------------|---------|-----------|-------||
|------------------------------|------------|---------|-----------|-------||
|------------------------------|------------|---------|-----------|-------||


 Guitar Solo
  Fmaj7/C             C                    Fmaj7/C
 4/4
    Q  E E  E E E E   E E E E +E   E E E   Q   E   Q   E   Q
|---0--0-0--0-0-0-0-|-0-0-0-0-(0)--0-0-0-|-0---0---0---0---0--||
|---1--1-1--1-1-1-1-|-1-1-1-1-(1)--1-1-1-|-1---1---1---1---1--||
|---2--2-2--2-2-2-2-|-0-0-0-0-(0)--0-0-0-|-2---2---2---2---2--||
|---3--3-3--3-3-3-3-|-2-2-2-2-(2)--2-2-2-|-3---3---3---3---3--||
|---3--3-3--3-3-3-3-|-3-3-3-3-(3)--3-3-3-|-3---3---3---3---3--||
|-------------------|--------------------|--------------------||
|
|   H       E E E E   E E E E  S S E q     E E E a E E E a Q
|-------------------|---5-5-5--5s7s5-5---|-7s5-5--------------||
|-/10------10s8---4s|=5------------------|-------6s5---5-5s8--||
|-------------------|--------------------|--------------------||
|-------------------|--------------------|--------------------||
|-------------------|--------------------|--------------------||
|-------------------|--------------------|--------------------||


                3rd Chorus
  Fmaj7/C        C
   W             Q  E  Q      E E E
|--0----------||-0--x--0------x-0-0-|
|--1----------||-1--x--1------x-1-1-|
|--2----------||-0--x--2------x-2-2-|
|--3----------||-2--x--3------x-3-3-|
|--3----------||-3--x--3------x-3-3-|
|-------------||--------------------|
|
| +H     H       Q  E  E  +H
|-------------||----7s10-(10)-------|
|-(8)---------||--------------------|
|-------------||--------------------|
|-------------||--------------------|
|-------------||--------------------|
|-------------||--------------------|


  Fmaj7/C                         Fmaj7/C
  E  E    E     Q     E   E  E     E  E E Q  E E E
|-0--0----x-----0-----0---0--0--|--0--0-x-0--0-0-0---|
|-1--1----x-----1-----1---1--1--|--1--1-x-1--1-1-1---|
|-0--0----x-----2-----2---2--2--|--0--0-x-2--2-2-2---|
|-2--2----x-----3-----3---3--3--|--2--2-x-3--3-3-3---|
|-3--3----x-----3-----3---3--3--|--3--3-x-3--3-3-3---|
|-------------------------------|--------------------|
|
| E  S  E    S  E  E  E   E  E    +W
|---10-10---10-10------------5--|-(5)----------------|
|-----------------10\-8\-/5-(5)-|-(5)----------------|
|-------------------------------|--------------------|
|-------------------------------|--------------------|
|-------------------------------|--------------------|
|-------------------------------|--------------------|


  C            Fmaj7/C            C       Fmaj7/C
  E  E    E     Q     E   E  E     E  E E Q  E E   E
|-0--0----x-----0-----0---0--0--|--0--0-x-0--0-0---0-|
|-1--1----x-----1-----1---1--1--|--1--1-x-1--1-1---1-|
|-0--0----x-----2-----2---2--2--|--0--0-x-2--2-2---2-|
|-2--2----x-----3-----3---3--3--|--2--2-x-3--3-3---3-|
|-3--3----x-----3-----3---3--3--|--3--3-x-3--3-3---3-|
|-------------------------------|--------------------|
|
| E  S  E    S  E  E  E   E  E    +H.          E   e
|---10-10---10-10------------5--|-(5)------------/10-|
|-----------------10\-8\-/5-(5)-|-(5)----------------|
|-------------------------------|--------------------|
|-------------------------------|--------------------|
|-------------------------------|--------------------|
|-------------------------------|--------------------|


  C                   Fmaj7/C     C       Fmaj7/C
  E  E    E     Q     E   E  E     E  E E Q   E E E
|-0--0----x-----0-----0---0--0--|--0--0-x-0---0-0-0-|
|-1--1----x-----1-----1---1--1--|--1--1-x-1---1-1-1-|
|-0--0----x-----2-----2---2--2--|--0--0-x-2---2-2-2-|
|-2--2----x-----3-----3---3--3--|--2--2-x-3---3-3-3-|
|-3--3----x-----3-----3---3--3--|--3--3-x-3---3-3-3-|
|-------------------------------|-------------------|
|
| E  S  E    S  E  E  E   E  E    +H        H
|---10-10---10-10------------5--|-(5)---------------|
|-----------------10\-8\-/5-(5)-|-(5)---------------|
|-------------------------------|-------------------|
|-------------------------------|-------------------|
|-------------------------------|-------------------|
|-------------------------------|-------------------|


                                    5th Verse
  C              Fmaj7/C             C
    E  E    E     Q     E   E  E      E  E E E E E E E
|---0--0----x-----0-----0---0--0--||--0--0-0-0-0-0-0-0-|
|---1--1----x-----1-----1---1--1--||--1--1-1-1-1-1-1-1-|
|---0--0----x-----2-----2---2--2--||--0--0-0-0-0-0-0-0-|
|---2--2----x-----3-----3---3--3--||--2--2-2-2-2-2-2-2-|
|---3--3----x-----3-----3---3--3--||--3--3-3-3-3-3-3-3-|
|---------------------------------||-------------------|
|
|   E  S  E    S  E  E  E   E  E     +W
|-/10-10-10---10-10------------5--||-(5)---------------|
|-------------------10\-8\-/5-(5)-||-(5)---------------|
|---------------------------------||-------------------|
|---------------------------------||-------------------|
|---------------------------------||-------------------|
|---------------------------------||-------------------|


  Fmaj7/C
  E E E E E E E E   E E E E E E E E
|-0-0-0-0-0-0-0-0-|-0-0-0-0-0-0-0-0---|
|-1-1-1-1-1-1-1-1-|-1-1-1-1-1-1-1-1---|
|-2-2-2-2-2-2-2-2-|-2-2-2-2-2-2-2-2---|
|-3-3-3-3-3-3-3-3-|-3-3-3-3-3-3-3-3---|
|-3-3-3-3-3-3-3-3-|-3-3-3-3-3-3-3-3---|
|-----------------|-------------------|
|
| W                 W
|-----------------|-------------------|
|-----------------|-------------------|
|-----------------|-------------------|
|-----------------|-------------------|
|-----------------|-------------------|
|-----------------|-------------------|


  C                                 Fmaj7/C
  Q  E E E E E E   Q  E E E E E E   E E E E E E E E   Q  E Q  E E E
|-0--0-0-0-0-0-0-|-0--0-0-0-0-0-0-|-0-0-0-0-0-0-0-0-|-0--0-0--0-0-0-|
|-1--1-1-1-1-1-1-|-1--1-1-1-1-1-1-|-1-1-1-1-1-1-1-1-|-1--1-1--1-1-1-|
|-0--0-0-0-0-0-0-|-0--0-0-0-0-0-0-|-2-2-2-2-2-2-2-2-|-2--2-2--2-2-2-|
|-2--2-2-2-2-2-2-|-2--2-2-2-2-2-2-|-3-3-3-3-3-3-3-3-|-3--3-3--3-3-3-|
|-3--3-3-3-3-3-3-|-3--3-3-3-3-3-3-|-3-3-3-3-3-3-3-3-|-3--3-3--3-3-3-|
|----------------|----------------|-----------------|---------------|


                   3rd Pre-Chorus
  Em                G                C                        Em     C     Am
  E E E Q  E E E    Q  E E E E E E   E E E Q      E  E  E     Q  E E E E E E
|-0-0-0-0--0-0-0-||-3--3-3-3-3-3---|-0-0-x-0------0--0----|---0--0-0-0-0-0-0-|
|-0-0-0-0--0-0-0-||-0--0-0-0-0-0---|-1-1-x-1------1--1----|---0--0-0-1-1-1-1-|
|-0-0-0-0--0-0-0-||-0--0-0-0-0-0---|-0-0-x-0------0--0----|---0--0-0-0-0-0-2-|
|-2-2-2-2--2-2-2-||-0--0-0-0-0-0---|-2-2-x-2------2--2----|---2--2-2-2-2-2-2-|
|-2-2-2-2--2-2-2-||-2--2-2-2-2-2---|-3-3-x-3------3--3--3-|---2--2-2-3-3-3-0-|
|-0-0-0-0--0-0-0-||-3--3-3-3-3-3-3-|----------------------|---0--0-0---------|
|
| Gtr VI
| W                 W                Q   E E  E  +E  Q      a W
|----------------||----------------|----------5--(5)-7\---|------------------|
|----------------||----------------|-----4s5-(5)-(5)-7\---|-4s5--------------|
|----------------||----------------|----------------------|------------------|
|----------------||----------------|----------------------|------------------|
|----------------||----------------|----------------------|------------------|
|----------------||----------------|----------------------|------------------|


  Am                    Fmaj7/C                        C
  +E   E E Q    E E E    W          +W                 W
|-(0)--0-0-0----0-0---|--0--------|-(0)--------------|-0-------------|
|-(1)--1-1-1----1-1---|--1--------|-(1)--------------|-1-------------|
|-(2)--2-2-2----2-2---|--2--------|-(2)--------------|-0-------------|
|-(2)--2-2-2----2-2---|--3--------|-(3)--------------|-2-------------|
|-(0)--0-0-0----0-0-0-|--3--------|-(3)--------------|-3-------------|
|---------------------|-----------|------------------|---------------|
|
|  E   E q    E Q   E    W           E  E E E E E Q    H    Q  E a E
|-----10s9------------|-----------|-10--9-7-9-5-7----|-----------5s7-|
|------------10s8---8s|=10--------|---------------5--|---------5-----|
|---------------------|-----------|------------------|---------------|
|---------------------|-----------|------------------|---------------|
|---------------------|-----------|------------------|---------------|
|---------------------|-----------|------------------|---------------|


                                                     Out-Chorus
  C                  Fmaj7/C                          C     Fmaj7/C
  +W                 Q.   Q  +E  Q    +W              Q   E Q   E E E
|-(0)--------------|-0----0--(0)-0--|-(0)----------||-0---x-0---x-0-0-|
|-(1)--------------|-1----1--(1)-1--|-(1)----------||-1---x-1---x-1-1-|
|-(0)--------------|-2----2--(2)-2--|-(2)----------||-0---x-2---x-2-2-|
|-(2)--------------|-3----3--(3)-3--|-(3)----------||-2---x-3---x-3-3-|
|-(3)--------------|-3----3--(3)-3--|-(3)----------||-3---x-3---x-3-3-|
|------------------|----------------|--------------||-----------------|
|
|       PM--|
| +E  E E E Q  E E   W                 H     Q  Q     Q   Q   H
|-(7)s5-5---5------|----------------|--------------||----10-----------|
|---------5----5s3-|----------------|-----------5s=||=8---------------|
|------------------|----------------|--------------||-----------------|
|------------------|----------------|--------------||-----------------|
|------------------|----------------|--------------||-----------------|
|------------------|----------------|--------------||-----------------|


  C           Fmaj7/C            C       Fmaj7/C
  E E    E     Q     E   E  E     E  E E Q  E E E
|-0-0----x-----0-----0---0--0--|--0--0-x-0--0-0-0-|
|-1-1----x-----1-----1---1--1--|--1--1-x-1--1-1-1-|
|-0-0----x-----2-----2---2--2--|--0--0-x-2--2-2-2-|
|-2-2----x-----3-----3---3--3--|--2--2-x-3--3-3-3-|
|-3-3----x-----3-----3---3--3--|--3--3-x-3--3-3-3-|
|------------------------------|------------------|
|
| E S  E    S  E  E  E   E  E    +H.          Q
|---9-10---10-10------------5--|-(5)--------------|
|----------------10\-8\-/5-(5)-|-(5)--------------|
|------------------------------|------------------|
|------------------------------|------------------|
|------------------------------|------------------|
|------------------------------|------------------|


  C            Fmaj7/C            C       Fmaj7/C
  E  E    E     Q     E   E  E     E  E E Q      E E E
|-0--0----x-----0-----0---0--0--|--0--0-x-0------0-0-0-|
|-1--1----x-----1-----1---1--1--|--1--1-x-1------1-1-1-|
|-0--0----x-----2-----2---2--2--|--0--0-x-2------2-2-2-|
|-2--2----x-----3-----3---3--3--|--2--2-x-3------3-3-3-|
|-3--3----x-----3-----3---3--3--|--3--3-x-3------3-3-3-|
|-------------------------------|----------------------|
|
| E  S  E    S  E  E  E   E  E    +Q    E E +H
|---10-10---10-10------------5--|-(5)------------------|
|-----------------10\-8\-/5-(5)-|-(5)---4s5-(5)\-------|
|-------------------------------|----------------------|
|-------------------------------|----------------------|
|-------------------------------|----------------------|
|-------------------------------|----------------------|


  C            Fmaj7/C            C      Fmaj7/C
  E  E    E     Q     E   E  E    E E  E Q   E E E
|-0--0----x-----0-----0---0--0--|-0-0--x-0---0-0-0-|
|-1--1----x-----1-----1---1--1--|-1-1--x-1---1-1-1-|
|-0--0----x-----2-----2---2--2--|-0-0--x-2---2-2-2-|
|-2--2----x-----3-----3---3--3--|-2-2--x-3---3-3-3-|
|-3--3----x-----3-----3---3--3--|-3-3--x-3---3-3-3-|
|-------------------------------|------------------|
|
| E  S  E    S  E  E  E   E  E    Q    Q   H
|------10---10-10------------5--|-----/5-----------|
|---10------------10\-8\-/5-(5)-|------------------|
|-------------------------------|------------------|
|-------------------------------|------------------|
|-------------------------------|------------------|
|-------------------------------|------------------|


  C            Fmaj7/C              Em   G        C
                                                      2/4
  E  E    E     Q     E   E  E      q.   Q.       Q    +Q   Q
|-0--0----x-----0-----0---0--0--|---0----3--------0--|-(0)-----*|
|-1--1----x-----1-----1---1--1--|---0----0--------1--|-(1)-----*|
|-0--0----x-----2-----2---2--2--|---0----0--------0--|-(0)-----*|
|-2--2----x-----3-----3---3--3--|---2----0--------2--|-(2)-----*|
|-3--3----x-----3-----3---3--3--|---2----2--------3--|-(3)-----*|
|-------------------------------|---0----3-----------|---------*|
|
| E  S  E    S  E  E  E   E  E    a E Q  E  +E  E Q    +Q   Q
|------10---10-10------------5--|-5s7s5--------------|---------*|
|---10------------10\-8\-/5-(5)-|--------5--(5)s3----|---------*|
|-------------------------------|-----------------5--|-(5)-----*|
|-------------------------------|--------------------|---------*|
|-------------------------------|--------------------|---------*|
|-------------------------------|--------------------|---------*|




--------------------------------------------------------------------------------


Duration Legend
---------------
W - whole; H - half; Q - quarter; E - 8th; S - 16th; T - 32nd; X - 64th; a - acciaccatura
+ - note tied to previous; . - note dotted; .. - note double dotted
Uncapitalized letters represent notes that are staccato (1/2 duration)
Irregular groupings are notated above the duration line
Duration letters will always appear directly above the note/fret number it represents the
duration for.  Duration letters with no fret number below them represent rests.  Multi-
bar rests are notated in the form Wxn, where n is the number of bars to rest for.  Low
melody durations appear below the staff

Tablature Legend
----------------
 h   - hammer-on
 p   - pull-off
 b   - bend
 pb  - pre-bend
 r   - bend release (if no number after the r, then release immediately)
 /\  - slide into or out of (from/to "nowhere")
 s   - legato slide
 S   - shift slide
<n> - natural harmonic
[n]  - artificial harmonic
n(n) - tapped harmonic
 ~   - vibrato
 tr  - trill
 T   - tap
 TP  - trem. picking
 PM  - palm muting
\n/  - tremolo bar dip; n = amount to dip
 \n  - tremolo bar down
 n/  - tremolo bar up
/n\  - tremolo bar inverted dip
 =   - hold bend; also acts as connecting device for hammers/pulls
 <> - volume swell (louder/softer)
 x   - on rhythm slash represents muted slash
 o   - on rhythm slash represents single note slash

Misc Legend
-----------
 |  - bar
||  - double bar
||o - repeat start
o|| - repeat end
*|  - double bar (ending)
 :  - bar (freetime)
 $  - Segno
 &  - Coda
comments
We did not receive enough feedback on this tab! Please rate:
print report bad tab
1 2 3 4 5
I want to post or [tab]
guest
You may want to rate the tab now too:
select rating
Please do not post tabs as comments. Select "correction" instead!