Oops, an error
Loading. Please wait.

Coquette Tab

448 views 3 this week
no commentswrite comment
1 2 3 4 5
please rate
Autoscroll
+/-
esc
set tempo
stop
Contributor
Hey! There's an official Ultimate Guitar app which is ideal
for learning songs when you're away from computer. Get the app
WARNING: You are trying to view
                                    content from Ultimate-Guitar.com
                                    in an unauthorized application,
                                    which is prohibited.

                                    Please use an official Ultimate
                                    Guitar Tabs application for iPhone,
                                    iPad or Android to access legitimate
                                    chords, guitar, bass, and drum tabs
                                    from Ultimate-Guitar.com database.

                                    Type "ultimate guitar tabs" in Apple
                                    App Store's or Android Market's
                                    search to find the application.
  -----------------------------------------------------------

  PAUL McCARTNEY - COQUETTE (Green, Kahn, Lombardo) From RUN
                   DEVIL RUN album. Released on October, 5th, 
                   1999.
   
  -----------------------------------------------------------

  Tabbed by:PJVillanueva





  
  Hear me, why you keep fooling, little coquette, 
  Making fun of the one who loves you?

  Breaking hearts you are ruling, little coquette, 
  True hearts tenderly dreaming of you.

  Someday you'll fall in love as I fell in love with you.
  Maybe the one you love will just be fooling too.

  And when you are alone with all your regrets, you know, 
  My little coquette, I love you.

                       SOLO                       

  Mmmm, someday you'll fall in love as I fell in love with you.
  Now, maybe the one you love will just be fooling too.

  And when you are alone with all your regrets, Oooohh,
  Now, you know, my little coquette, I love you.

 
                             

    12/8


    C               F               C               G           C
  e|------- ------- ------- -------|------- ------- ------- -------|
  B|131313--13--13--131313--13--13-|131313--13------12----------13-|
  G|121212--12--12--141414--14--14-|121212--12------12----------12-|
  D|141414--14--14--151515--15--15-|141414--14------12----------14-|
  A|-------------------------------|-------------------------------|
  E|-------------------------------|-------------------------------|

  e|------- ------- ------- -------|------- ------- ------- -------|
  B|-------------------------------|-------------------------------|
  G|-------------------------------|-----------------------------5-|
  D|-------------------------------|---------------------5--5--7---|
  A|-------------------------------|-----------------------------3-|
  E|-------------------------------|---------------------3--3--5---|



    00:04

  e|121212- 121212- 121212- 121212-|121212- 121212- 121212- 121212-|
  B|131313--131313--131313--131313-|131313--131313--131313--131313-|
  G|121212--121212--121212--121212-|121212--121212--121212--121212-|
  D|-------------------------------|-------------------------------|
  A|-------------------------------|-------------------------------|
  E|-------------------------------|-------------------------------|
    Hear                                why  you    fooling,
        me,                                     keep
  e|------- 8-\---- ------- 12--12-|------- 8-\---- ------- 8------|
  B|--------8-\-------------13--13-|--------8-\-------------8------|
  G|--------9-\-------------12--12-|--------9-\-------------9------|
  D|-------10-\--------------------|-------10-\------------10------|
  A|-------10-\--------------------|-------10-\------------10------|
  E|--------8-\--------------------|--------8-\-------------8------|

  e|------- ------- ------- -------|------- ------- ------- -------|
  B|-------------------------------|--------5-------6-------7------|
  G|5------------------------------|-------------------------------|
  D|-------------------------------|-----5-------7-------8------/9-|
  A|3------------------------------|-------------------------------|
  E|-------------------------------|-------------------------------|



    G7
  e|131313- 131313- 131313- 131313-|131313- 131313- 131313- 131313-|
  B|121212--121212--121212--121212-|121212--121212--121212--121212-|
  G|121212--121212--121212--121212-|121212--121212--121212--121212-|
  D|-------------------------------|-------------------------------|
  A|-------------------------------|-------------------------------|
  E|-------------------------------|-------------------------------|
        little  
            coquette
  e|------- 7------ ------- 7---7--|------- 7------ ------- 7---7--|
  B|--------8---------------8---8--|--------8---------------8---8--|
  G|--------7---------------7---7--|--------7---------------7---7--|
  D|--------9---------------9---9--|--------9---------------9---9--|
  A|-------10--------------10--10--|-------10--------------10--10--|
  E|-------------------------------|-------------------------------|

  e|------- ------- ------- -------|------- ------- ------- -------|
  B|8------------------/12---\11--/|12-----------------------------|
  G|-------------------------------|-------------------------------|
  D|-------------------/12---\11--/|12-----------------------------|
  A|-------------------------------|-------------------------------|
  E|-------------------------------|-------------------------------|




  e|131313- 131313- 131313- 131313-|131313- 131313- 131313- 131313-|
  B|121212--121212--121212--121212-|121212--121212--121212--121212-|
  G|121212--121212--121212--121212-|121212--121212--121212--121212-|
  D|-------------------------------|-------------------------------|
  A|-------------------------------|-------------------------------|
  E|-------------------------------|-------------------------------|
        Making                          fun of  one             who
                                              the
  e|------- 7------ ------- 7---7--|------- 7------ ------- 7------|
  B|--------8---------------8---8--|--------8---------------8------|
  G|--------7---------------7---7--|--------7---------------7------|
  D|--------9---------------9---9--|--------9---------------9------|
  A|-------10--------------10--10--|-------10--------------10------|
  E|-------------------------------|-------------------------------|

  e|------- ------- ------- -------|10--\7- ------- ------- -------|
  B|----12-------------------------|-------------------------------|
  G|----------------------------10-|----\7----------------------/9-|
  D/12-----------------------------|-------------------------------|
  A|-------------------------------|-------------------------------|
  E|-------------------------------|-------------------------------|



    C                               G7
  e|121212- 121212- 121212- 121212-|13--13- 131313- 131313- 131313-|
  B|131313--131313--131313--131313-|12--12--121212--121212--121212-|
  G|121212--121212--121212--121212-|12--12--121212--121212--121212-|
  D|-------------------------------|-------------------------------|
  A|-------------------------------|-------------------------------|
  E|-------------------------------|-------------------------------|
      loves     you?
  e|8------ 8------ ------- 8------|--7-7-- 7-7-7-- 7-7-7-- 7-7-7--|
  B|8-------8---------------8------|--8-8---8-8-8---8-8-8---8-8-8--|
  G|9-------9---------------9------|--7-7---7-7-7---7-7-7---7-7-7--|
  D10------10--------------10------|--9-9---9-9-9---9-9-9---9-9-9--|
  A10------10--------------10------|-1010--101010--101010--101010--|
  E|8-------8---------------8------|-------------------------------|

  e|8---8-- ------- ------- -------|------- ------- ------- -------|
  B|-------------------------------|--------12-\10----------8-\----|
  G|-------------------------------|-------------------------------|
  D|-------------------------------|---/12-----\10-----------------|
  A|-------------------------------|-------------------------------|
  E|-------------------------------|-------------------------------|



    00:26
    C
  e|121212- 121212- 121212- 121212-|121212- 121212- 121212- 121212-|
  B|131313--131313--131313--131313-|131313--131313--131313--131313-|
  G|121212--121212--121212--121212-|121212--121212--121212--121212-|
  D|-------------------------------|-------------------------------|
  A|-------------------------------|-------------------------------|
  E|-------------------------------|-------------------------------|
      Breaking                          hearts are  
                                            you ruling,
  e|------- 12\---- ------- 12--12-|------- 12----- ------- 12--12-|
  B|--------13\-------------13--13-|--------13--------------13--13-|
  G|--------12\-------------12--12-|--------12--------------12--12-|
  D|-------------------------------|-------------------------------|
  A|-------------------------------|-------------------------------|
  E|-------------------------------|-------------------------------|

  e|------- ------- ------- -------|------- ------- ------- -------|
  B|-------------------------------|--------5-------6-------7------|
  G|-------------------------------|-------------------------------|
  D|-------------------------------|-----5-------7-------8------/9-|
  A|-------------------------------|-------------------------------|
  E|-------------------------------|-------------------------------| 



    G7
  e|131313- 131313- 131313- 131313-|131313- 131313- 131313- 131313-|
  B|121212--121212--121212--121212-|121212--121212--121212--121212-|
  G|121212--121212--121212--121212-|121212--121212--121212--121212-|
  D|-------------------------------|-------------------------------|
  A|-------------------------------|-------------------------------|
  E|-------------------------------|-------------------------------|
      little                        Oooooooooooooooooooohhh
            coquette,
  e|------- 7------ ------- 7---7--|------- 7------ ------- 7---7--|
  B|--------8---------------8---8--|--------8---------------8---8--|
  G|--------7---------------7---7--|--------7---------------7---7--|
  D|--------9---------------9---9--|--------9---------------9---9--|
  A|-------10--------------10--10--|-------10--------------10--10--|
  E|-------------------------------|-------------------------------|

  e|------- ------- ------- -------|------- ------- ------- -------|
  B|8------------------------------|-------------------------------|
  G|-------------------------------|-------------------------------|
  D|-------------------------------|-------------------------------|
  A|-------------------------------|-------------------------------|
  E|-------------------------------|-------------------------------|




  e|131313- 131313- 131313- 131313-|131313- 131313- 131313- 131313-|
  B|121212--121212--121212--121212-|121212--121212--121212--121212-|
  G|121212--121212--121212--121212-|121212--121212--121212--121212-|
  D|-------------------------------|-------------------------------|
  A|-------------------------------|-------------------------------|
  E|-------------------------------|-------------------------------|
        True                            tenderly                of
            hearts                              dreaming   
  e|------- 7------ ------- 7---7--|------- 7------ ------- 7------|
  B|--------8---------------8---8--|--------8---------------8------|
  G|--------7---------------7---7--|--------7---------------7------|
  D|--------9---------------9---9--|--------9---------------9------|
  A|-------10--------------10--10--|-------10--------------10------|
  E|-------------------------------|-------------------------------|

  e|------- ------- ------- -------|------- ------- ------- -------|
  B|8---8-----10----8--------------|----12------------------12-----|
  G|-------------------------------|-------------------------------|
  D|9---9-----10----9--------------/12-----------------/12-----/14-|
  A|-------------------------------|-------------------------------|
  E|-------------------------------|-------------------------------|


                                                                 xx
    C 
  e|121212- 121212- 121212- 121212-|121212- 121212- 121212- 121212-|
  B|131313--131313--131313--131313-|131313--131313--131313--131313-|
  G|121212--121212--121212--121212-|121212--121212--121212--121212-|
  D|-------------------------------|-------------------------------|
  A|-------------------------------|-------------------------------|
  E|-------------------------------|-------------------------------|
        you.
  e|8------ 8------ ------- 12--12-|------- 12----- ------- 12--12-|
  B|8-------8---------------13--13-|--------13--------------13--13-|
  G|9-------9---------------12--12-|--------12--------------12--12-| 
  D10------10----------------------|-------------------------------|
  A10------10----------------------|-------------------------------|
  E|8-------8----------------------|-------------------------------|

  e|------- ------- ------- -------|------- ------- ------- -------|
  B|13-----------------------------|----------13----13--13-\-------|
  G|-------------------------------|-------------------------------|
  D|-------------------------------|-------/14--14----14-----------|
  A|-------------------------------|-------------------------------|
  E|-------------------------------|-------------------------------|


    00:47
    X
    C7
  e|-8-8-8- -8-8-8- -8-8-8- -8-8-8-|-8-8-8- -8-8-8- -8-8-8- -8-8-8-|
  B|111111--111111--111111--111111-|111111--111111--111111--111111-|
  G|-9-9-9---9-9-9---9-9-9---9-9-9-|-9-9-9---9-9-9---9-9-9---9-9-9-|
  D|-------------------------------|-------------------------------|
  A|-------------------------------|-------------------------------|
  E|-------------------------------|-------------------------------|
            Someday                 you'll  in  love             as          
                                        fall                       I 
  e|------- 8------ ------- 8------|------- 8------ ------- 8------|
  B|--------8---------------8------|--------8---------------8------|
  G|--------9---------------9------|--------9---------------9------|
  D|--------8---------------8------|--------8---------------8------|
  A|-------10--------------10------|-------10--------------10------|
  E|--------8---------------8------|--------8---------------8------|

  e|------- ------- ------- -------|------- ------- ------- -------|
  B|5------------------------------|-------------------------------|
  G|3------------------------------|9-------9-------9B10---R9------|
  D|5---------------------------/8-|------------8--------------/10-|
  A|3------------------------------|-------------------------------|
  E|-------------------------------|-------------------------------|



    F                                               E+5     Eb6
  e|-8-8-8- -8-8-8- -8-8-8- -8-8-8-|-8-8-8- -8-8--- 8-8---- 8-8----|
  B|101010--101010--101010--101010-|101010--1010----9-9-----8-8----|
  G|101010--101010--101010--101010-|101010--1010----9-9-----8-8----|
  D|-------------------------------|-------------------------------|
  A|-------------------------------|-------------------------------|
  E|-------------------------------|-------------------------------|
        fell     love       with you.
            in
  e|------- -8----- ------- -8-----|------- -8----- 7------ 6------|
  B|--------10--------------10-----|--------10------9-------8------|
  G|--------10--------------10-----|--------10------9-------8------|
  D|--------10--------------10-----|--------10------9-------8------|
  A|---------8---------------8-----|---------8------7-------6------|
  E|-------------------------------|-------------------------------|

  e|------- ------- ------- -------|------- ------- ------- -------|  
  B|10-----------------------------|--------10------9-------8------|
  G|-------------------------------|-------------------------------|
  D|-------------------------------|---/10------9-------8-------7--|
  A|-------------------------------|-------------------------------|
  E|-------------------------------|-------------------------------|



    D7
  e|8-8-8-- 8-8-8-- 8-8-8-- 8-8-8--|8-8-8-- 8-8-8-- 8-8-8-- 8-8-8--|
  B|7-7-7---7-7-7---7-7-7---7-7-7--|7-7-7---7-7-7---7-7-7---7-7-7--|
  G|7-7-7---7-7-7---7-7-7---7-7-7--|7-7-7---7-7-7---7-7-7---7-7-7--|
  D|-------------------------------|-------------------------------|
  A|-------------------------------|-------------------------------|
  E|-------------------------------|-------------------------------|
                                the one love
                Maybe                  you
  e|5------ 5------ ------- 5---5--|------- 5------ --5-5-- 5------|
  B|7-------7---------------7---7--|--------7---------7-7---7------|
  G|7-------7---------------7---7--|--------7---------7-7---7------|
  D|7-------7---------------7---7--|--------7---------7-7---7------|
  A|5-------5---------------5---5--|--------5---------5-5---5------|
  E|-------------------------------|-------------------------------|

  e|------- ------- ------- -------|------- ------- ------- -------|
  B|7------------------------------|-------------------------------|
  G|-------------------------------|-------------------------------|
  D|-------------------------------|---------------------------/12-|
  A|-------------------------------|-------------------------------|
  E|-------------------------------|-------------------------------|


                                                    X xxx   X xxx
    G7                              G+5
  e|131313- 131313- 131313- 131313-|111111- 111111- 111111- 111111-|
  B|121212--121212--121212--121212-|121212--121212--121212--121212-|
  G|121212--121212--121212--121212-|121212--121212--121212--121212-|
  D|-------------------------------|-------------------------------|
  A|-------------------------------|-------------------------------|
  E|-------------------------------|-------------------------------| 
        will            be  fooling     
            just                too.
  e|3-3-3-- 3-3-3-- 3-3-3-- 3-3-3--|3-3-3-- 3-3-3-- 3-3-3-- 3-3-3--|
  B|3-3-3---3-3-3---3-3-3---3-3-3--|4-4-4---4-4-4---4-4-4---4-4-4--|
  G|4-4-4---4-4-4---4-4-4---4-4-4--|4-4-4---4-4-4---4-4-4---4-4-4--|
  D|5-5-5---5-5-5---5-5-5---5-5-5--|5-5-5---5-5-5---5-5-5---5-5-5--|
  A|-------------------------------|-------------------------------|
  E|-------------------------------|-------------------------------|

  e|------- ------- ------- -------|11----- ------- ------- -------|
  B|12-----------------------------|----12-------------------------|
  G|-------------------------------|----------12-------------------|
  D|-------------------------------|----------------13------\------|
  A|-------------------------------|-------------------------------|
  E|-------------------------------|-------------------------------|


    01:09
    X
    C
  e|121212- 121212- 121212- 121212-|121212- 121212- 121212- 121212-| 
  B|131313--131313--131313--131313-|131313--131313--131313--131313-|
  G|121212--121212--121212--121212-|121212--121212--121212--121212-|
  D|-------------------------------|-------------------------------|
  A|-------------------------------|-------------------------------|
  E|-------------------------------|-------------------------------|
        And when                        you are                 with 
                                              alone
  e|------- 8------ ------- 12--12-|------- 8------ ------- 8---8--|
  B|--------8---------------13--13-|--------8---------------8---8--|
  G|--------9---------------12--12-|--------9---------------9---9--|
  D|-------10----------------------|-------10--------------10--10--|
  A|-------10----------------------|-------10--------------10--10--|
  E|--------8----------------------|--------8---------------8---8--|

  e|------- ------- ------- -------|------- 3------ 3------ 5------|
  B|--5----------------------------|-------------------------------|
  G|-------------------------------|---/4--------------------------|
  D/5------------------------------|-------------------------------|
  A|-------------------------------|-------------------------------|
  E|-------------------------------|-------------------------------|



    G7
  e|131313- 131313- 131313- 131313-|131313- 131313- 131313- 131313-|
  B|121212--121212--121212--121212-|121212--121212--121212--121212-|
  G|121212--121212--121212--121212-|121212--121212--121212--121212-|
  D|-------------------------------|-------------------------------|
  A|-------------------------------|-------------------------------|
  E|-------------------------------|-------------------------------|
    all your                        Oooooooooooooooooohhhh
            regrets,
  e|------- 7------ ------- 7---7--|------- 7------ ------- 7---7--|
  B|--------8---------------8---8--|--------8---------------8---8--|
  G|--------7---------------7---7--|--------7---------------7---7--|
  D|--------9---------------9---9--|--------9---------------9---9--|
  A|-------10--------------10--10--|-------10--------------10--10--|
  E|-------------------------------|-------------------------------|

  e|----7-- ------- ------- -------|7------ 6------ 7-----/ 8---8--|
  B|-------------------------------|-------------------------------|
  G/7------------------------------|--------6-------7-----------8-\|
  D|-------------------------------|-------------------------------|
  A|-------------------------------|-------------------------------|
  E|-------------------------------|-------------------------------|




  e|131313- 131313- 131313- 131313-|131313- 131313- 131313- 131313-|
  B|121212--121212--121212--121212-|121212--121212--121212--121212-|
  G|121212--121212--121212--121212-|121212--121212--121212--121212-|
  D|-------------------------------|-------------------------------|
  A|-------------------------------|-------------------------------|
  E|-------------------------------|-------------------------------|
        you know,                       my  little  
                                                coquette,
  e|------- 7------ ------- 7-7-7--|------- 7------ ------- 7------|
  B|--------8---------------8-8-8--|--------8---------------8------|
  G|--------7---------------7-7-7--|--------7---------------7------|
  D|--------9---------------9-9-9--|--------9---------------9------|
  A|-------10--------------101010--|-------10--------------10------|
  E|-------------------------------|-------------------------------|

  e|7------ ------- ------- -------|7------ 5------ 3------ 1------|
  B|-------------------------------|-------------------------------|
  G|7------------------------------|7---x---5---x---4-------2------|
  D|-------------------------------|--------------------0----------|
  A|-------------------------------|-------------------------------|
  E|-------------------------------|-------------------------------|


                                                    X   X   x X X
    C                               G
  e|121212- 121212- 121212- 121212-|15--15- 151515- 151515- 151515-|
  B|131313--131313--131313--131313-|12--12--121212--121212--121212-|
  G|121212--121212--121212--121212-|12--12--121212--121212--121212-|
  D|-------------------------------|-------------------------------|
  A|-------------------------------|-------------------------------|
  E|-------------------------------|-------------------------------|
    I love 
        you.   
  e|8---8-- 8---8-- 8---8-- 8---8--|----7-- 7-7-7-- 7-7-7-- 7-7-7--|
  B|8---8---8---8---8---8---8---8--|----8---8-8-8---8-8-8---8-8-8--|
  G|9---9---9---9---9---9---9---9--|----7---7-7-7---7-7-7---7-7-7--|
  D10--10--10--10--10--10--10--10--|----9---9-9-9---9-9-9---9-9-9--|
  A10--10--10--10--10--10--10--10--|---10--101010--101010--101010--|
  E|8---8---8---8---8---8---8---8--|-------------------------------|

  e|--0---- ------- --1---- 0------|------- ------- ------- -------|
  B|-------------------------------|----------------------------13-|
  G|0--------------/2---0---0------|--------12--12--12--12--1214---|
  D|-------------------------------|----------------------------10-|
  A|-------------------------------|--------10--10--10--10--1012---|
  E|-------------------------------|-------------------------------|


    SOLO
    01:30
    X
                     H P             H P             H P
  e|12----- 12--13- 121512- 12--13-|121512- 12--13- 121512- ----12-|
  B|1313----1313----13---13-13-----|13---13-13------13---15-13--13-|
  G|12------12------12----1212-----|12----1212------12---12-12-----|
  D|-------------------------------|-------------------------------|
  A|-------------------------------|-------------------------------|
  E|-------------------------------|-------------------------------|

  e|------- 8-\---- ------- -------|------- 8-\---- ------- 8------|
  B|--------8-\--------------------|--------8-\-------------8---8--|
  G|--------9-\--------------------|--------9-\-------------9---9--|
  D|-------10-\--------------------|-------10-\------------10--10--|
  A|-------10-\--------------------|-------10-\------------10--10--|
  E|--------8-\--------------------|--------8-\-------------8---8--|

  e|------- ------- ------- -------|------- ------- ------- -------|
  B|--5-----5---5---------------5--|--5-----5-------6-------7------|
  G|-------------------------------|-------------------------------|
  D/5---------5--------------------|5---5-----5-5/7----/8-------9/12
  A|-------------------------------|-------------------------------|
  E|-------------------------------|-------------------------------|




  e|------- ------- ------- -------|------- ------- ------- -------|
  B|121212--121212--121212--121212-|121212--121212--121212----1212-|  
  G|121212--121212--121212--121212-|101212--121212--121212---------|
  D|121212--121212--121212--121212-|121212--121212--121212----1212-|
  A|-------------------------------|-------------------------------|
  E|-------------------------------|-------------------------------|

  e|------- 7------ ------- 7---7\-|------- 7------ ------- 7---7\-|
  B|--------8---------------8---8\-|--------8---------------8---8\-|
  G|--------7---------------7---7\-|--------7---------------7---7\-|
  D|--------9---------------9---9\-|--------9---------------9---9\-|
  A|-------10--------------10--10\-|-------10--------------10--10\-|
  E|-------------------------------|-------------------------------|

  e|------- ------- ------- -------|------- ------- ------- -------|
  B|12-----------------------------|----------------12--11----10---|
  G|-------------------------------|-------------------------------|
  D|-------------------------------|-----------/12------11----10---|
  A|-------------------------------|-------------------------------|
  E|-------------------------------|-------------------------------|




  e|------- ------- ------- -------|121212- 11--10- ------- -------|
  B|121212--11--10-----------------|121212--11--10----8-10--8------| 
  G|-------------------------------|121212--11--10----7-----9------|
  D|121212--11--101910191019101910-|--------------------------1010-|
  A|--------------T---T---T---T----|-------------------------------|
  E|-------------------------------|-------------------------------|

  e|------- ------- ------- -------|------- ------- ------- -------|
  B|--------8---------------8---8--|--------8---------------8------|
  G|--------7---------------7---7--|--------7---------------7------|
  D|--------9---------------9---9--|--------9---------------9------|
  A|-------10--------------10--10--|-------10--------------10------|
  E|-------------------------------|-------------------------------|

  e|------- ------- ------- -------|------- ------- ------- -------|
  B|8---------------8---10----7----|8---------------8-\-7------6---|
  G|-------------------------------|-------------------------------|
  D|--------------------10----7----|9---------------9-\-8-----7----|
  A|-------------------------------|-------------------------------|
  E|-------------------------------|-------------------------------|


                                                               xx

  e|------- ------- ------- 8------|--8---- 8---8-- --8-8-- 8-8-8--|
  B|131313--131313--131313--8H10-8-|------------------8-8---8-8-8--|
  G|121212--121212--121212--9H10-9-|9---9-----9-----9-9-9---9-9-9--|
  D|141414--141414--141414---------|-------------------------------|
  A|-------------------------------|-------------------------------|
  E|-------------------------------|-------------------------------|

  e|------- 8------ ------- 8---8--|------- 8---8-- ------- 8---8--|
  B|--------8---------------8---8--|--------8---8-----------8---8--|
  G|--------9---------------9---9--|--------9---9-----------9---9--|
  D|-------10--------------10--10--|-------10--10----------10--10--|
  A|-------10--------------10--10--|-------10--10----------10--10--|
  E|--------8---------------8---8--|--------8---8-----------8---8--|

  e|------- ------- ------- -------|------- ------- ------- -------|
  B|5-----------------------5---5--|--5-----5---5-----5-----5---5--|
  G|-------------------------------|-------------------------------|
  D|5--------------/7---5-----5----|5---5-----5-----5---5-----5----|
  A|-------------------------------|-------------------------------|
  E|-------------------------------|-------------------------------|



    01:52
    X
    C7
  e|-8-8-8- -8-8-8- -8-8-8- -8-8-8-|-8-8-8- -8-8-8- -8-8-8- -8-8-8-|
  B|111111--111111--111111--111111-|111111--111111--111111--111111-|
  G|-9-9-9---9-9-9---9-9-9---9-9-9-|-9-9-9---9-9-9---9-9-9---9-9-9-|
  D|-------------------------------|-------------------------------|
  A|-------------------------------|-------------------------------|
  E|-------------------------------|-------------------------------|
         Mmmmm   Someday            you'll  in  love             as          
                                        fall                       I 
  e|------- 8------ ------- 8---8--|------- 8------ ------- 8------|
  B|--------8---------------8---8--|--------8---------------8------|
  G|--------9---------------9---9--|--------9---------------9------|
  D|--------8---------------8---8--|--------8---------------8------|
  A|-------10--------------10--10--|-------10--------------10------|
  E|--------8---------------8---8--|--------8---------------8------|

  e|------- ------- ------- -------|------- ------- ------- -------|
  B|-------------------------------|--5---------5-------5----------|
  G|-------------------------------|--------3----------------------|
  D|-------------------------------|5---------5-----------------5/10
  A|-------------------------------|-------------------------------|
  E|-------------------------------|-------------------------------|



    F                                               E+5     Eb6
  e|-8-8-8- -8-8-8- -8-8-8- -8-8-8-|-8-8-8- -8-8--- 8-8---- 8-8----|
  B|101010--101010--101010--101010-|101010--1010----9-9-----8-8----|
  G|101010--101010--101010--101010-|101010--1010----9-9-----8-8----|
  D|-------------------------------|-------------------------------|
  A|-------------------------------|-------------------------------|
  E|-------------------------------|-------------------------------|
        fell        love    with you.
            in
  e|------- -8----- ------- -8-----|------- -8----- 8------ 8------|
  B|--------10--------------10-----|--------10------9-------8-----/|
  G|--------10--------------10-----|--------10------9-------8-----/|
  D|--------10--------------10-----|--------10------9-------8-----/|
  A|---------8---------------8-----|-------------------------------|
  E|-------------------------------|-------------------------------|

  e|------- ------- ------- -------|------- ------- ------- -------|  
  B|10-----------------------------|10------10------9-------8------|
  G|-------------------------------|-------------------------------|
  D|----------------------------5/10-------------9------8-------7--|
  A|-------------------------------|-------------------------------|
  E|-------------------------------|-------------------------------|



    D7
  e|8-8-8-- 8-8-8-- 8-8-8-- 8-8-8--|8-8-8-- 8-8-8-- 8-8-8-- 8-8-8--|
  B|7-7-7---7-7-7---7-7-7---7-7-7--|7-7-7---7-7-7---7-7-7---7-7-7--|
  G|7-7-7---7-7-7---7-7-7---7-7-7--|7-7-7---7-7-7---7-7-7---7-7-7--|
  D|-------------------------------|-------------------------------|
  A|-------------------------------|-------------------------------|
  E|-------------------------------|-------------------------------|
                Now,            the one love
                    maybe             you
  e|------- 5------ ------- 5---5--|------- 5---5-- ------- 5------|
  B/7-------7---------------7---7--|--------7---7-----------7------|
  G/7-------7---------------7---7--|--------7---7-----------7------|
  D/7-------7---------------7---7--|--------7---7-----------7------|
  A|--------5---------------5---5--|--------5---5-----------5------|
  E|-------------------------------|-------------------------------|

  e|------- ------- ------- -------|------- ------- ------- -------|
  B|7------------------------------|----------------10--\7---------|
  G|-------------------------------|-------------------------------|
  D|-------------------------------|-------------7/-----\7-----/12-|
  A|-------------------------------|-------------------------------|
  E|-------------------------------|-------------------------------|

                                                    x x x   x x x
                                                    X X X   X X X
    G7                              G+5
  e|131313- 131313- 131313- 131313-|111111- 111111- 111111- 111111-|
  B|121212--121212--121212--121212-|121212--121212--121212--121212-|  
  G|121212--121212--121212--121212-|121212--121212--121212--121212-|
  D|-------------------------------|-------------------------------|
  A|-------------------------------|-------------------------------|
  E|-------------------------------|-------------------------------|
        will            be  fooling     too.
            just
  e|3-3-3-- 3-3-3-- 3-3-3-- 3-3-3--|3-3-3-- 3-3-3-- 3-3-3-- 3-3-3--|
  B|3-3-3---3-3-3---3-3-3---3-3-3--|4-4-4---4-4-4---4-4-4---4-4-4--|
  G|4-4-4---4-4-4---4-4-4---4-4-4--|4-4-4---4-4-4---4-4-4---4-4-4--|
  D|5-5-5---5-5-5---5-5-5---5-5-5--|5-5-5---5-5-5---5-5-5---5-5-5--|
  A|-------------------------------|-------------------------------|
  E|-------------------------------|-------------------------------|

  e|------- ------- ------- -------|11----- ------- ------- -------|
  B|12-----------------------------|----12-------------------------|
  G|-------------------------------|----------12--\-8--------------|
  D|-------------------------------|-------------------------------|
  A|-------------------------------|-------------------------------|
  E|-------------------------------|-------------------------------|



    02:13
    X                                                              
    C
  e|121212- 121212- 121212- 121212-|121212- 121212- 121212- 121212-| 
  B|131313--131313--131313--131313-|131313--131313--131313--131313-|
  G|121212--121212--121212--121212-|121212--121212--121212--121212-|
  D|-------------------------------|-------------------------------|
  A|-------------------------------|-------------------------------|
  E|-------------------------------|-------------------------------|
        And when                        you are                 with 
                                              alone
  e|------- 8------ ------- 12--12-|------- 12----- ----12- -------|
  B|--------8---------------13--13-|--------13--13------13--13-----|
  G|--------9---------------12--12-|------------12----------12-----|
  D|-------10----------------------|-------------------------------|
  A|-------10----------------------|-------------------------------|
  E|--------8----------------------|-------------------------------|

  e|------- ------- ------- -------|------- ------- ------- -------|
  B|--------8---------------8------|------------8-----------10-/11-|
  G|----9---9----------------------|-------------------------------|
  D|-------------------------------|------------------------10-/11-|
  A|-------------------------------|-------------------------------|
  E|-------------------------------|-------------------------------|



    G7
  e|131313- 131313- 131313- 131313-|131313- 131313- 131313- 131313-|
  B|121212--121212--121212--121212-|121212--121212--121212--121212-|
  G|121212--121212--121212--121212-|121212--121212--121212--121212-|
  D|-------------------------------|-------------------------------|
  A|-------------------------------|-------------------------------|
  E|-------------------------------|-------------------------------|
    all     your                    Oooooooooooooooooohhhh
              regrets,
  e|------- 7------ ------- 7---7--|------- 7------ ------- 7---7--|
  B|--------8---------------8---8--|--------8---------------8---8--|
  G|--------7---------------7---7--|--------7---------------7---7--|
  D|--------9---------------9---9--|--------9---------------9---9--|
  A|-------10--------------10--10--|-------10--------------10--10--|
  E|-------------------------------|-------------------------------|

  e|------- ------- ------- -------|------- ------- ------- -------|
  B|12------------------13------11-|12-----------------------------|
  G|-------------------------------|-------------------------------|
  D|12------------------14------11-|12----------12----12-----------|
  A|-------------------------------|----------------------------7/-|
  E|-------------------------------|-------------------------------|




  e|131313- 131313- 131313- 131313-|131313- 131313- 131313- 131313-|
  B|121212--121212--121212--121212-|121212--121212--121212--121212-|
  G|121212--121212--121212--121212-|121212--121212--121212--121212-|
  D|-------------------------------|-------------------------------|
  A|-------------------------------|-------------------------------|
  E|-------------------------------|-------------------------------|
        Uh, you  know,          my  little                       I
                                        coquette,
  e|------- 7------ 7---7-- 7---7--|7------ 7---7-- ------- 7------|
  B|--------8-------8---8---8---8--|8-------8---8-----------8------|
  G|--------7-------7---7---7---7--|7-------7---7-----------7------|
  D|--------9-------9---9---9---9--|9-------9---9-----------9------|
  A|-------10------10--10--10--10--10------10--10----------10------|
  E|-------------------------------|-------------------------------|

  e|------- ------- ------- -------|------- ------- ------- -------|
  B|----------------------------10/|12--12--12--12----12----12-----|
  G|-------------------/12---------|-------------------------------|
  D|----------------------------10/|12--12--12--12--12--12------/14|
  A|10------10------10-------------|-------------------------------|
  E|-------------------------------|-------------------------------|


                                                (.
    C               F               C      C#   C7
  e|8-8-8-- 8-8-8-- -8-8-8-- 8-8-8-|8------ 9---10- ------- -------|
  B|8-8-8---8-8-8---101010--101010-|8-------9----8-----------------|
  G|9-9-9---9-9-9---101010--101010-|9------10----9-----------------|
  D|-------------------------------|-------------------------------5
  A|-------------------------------|------------------------------6|
  E|-------------------------------|-----------------------------8-|
    love 
        you.   
  e|8-8-8-- 8---8-- 8-8-8-- 8---8--|8------ 9----8- ------- -------|
  B|8-8-8---8--10--101010--10--10--|8-------9----8-----------------|
  G|9-9-9---9--10--101010--10--10--|9------10----9-----------------|
  D101010--10--10--101010--10--10--10------11---12-----------------|
  A101010--10---8---8-8-8---8---8--10------11---10-----------------|
  E|8-8-8---8----------------------|0-------9----8-----------------|

  e|------- ------- ------- -------|------- ------- ------- -------|
  B|13------13--\-----10----10--10-|--------9---10-----------------|
  G|-------------------------------|-------10----9-----------------|
  D|----------------10--10----10---/14-----11---10-----------------|
  A|-------------------------------|-------------------------------|
  E|-------------------------------|-------------------------------|


                                (.

  e|------- ------- ------- 15--17-|------- ------- ------- -------|
  B|--------------------15---------|-------------------------------|
  G|----7---12--14--15-------------|-------------------------------|
  D|7------------------------------|-------------------------------|
  A|-------------------------------|-------------------------------|
  E|-------------------------------|-------------------------------|









        B  Bend
        R  Release
        /  Slide up
        \  Slide down
        H  Hammer-on
        P  Pull-off
        ~  Vibrato
        +  Harmonic
        x  Mute note
        .  Play note like a dot in standard notation
        ^  Ties two notes together
        (. Pause




comments
We did not receive enough feedback on this tab! Please rate:
print report bad tab
1 2 3 4 5
I want to post or [tab]
guest
You may want to rate the tab now too:
select rating
Please do not post tabs as comments. Select "correction" instead!