Oops, an error
Loading. Please wait.

Heart Of The Country Tab

19,860 views 36 this week
no commentswrite comment
1 2 3 4 5
excellent!
x 6
Autoscroll
+/-
esc
set tempo
stop
Contributor
Hey! There's an official Ultimate Guitar app which is ideal
for learning songs when you're away from computer. Get the app
WARNING: You are trying to view
                                    content from Ultimate-Guitar.com
                                    in an unauthorized application,
                                    which is prohibited.

                                    Please use an official Ultimate
                                    Guitar Tabs application for iPhone,
                                    iPad or Android to access legitimate
                                    chords, guitar, bass, and drum tabs
                                    from Ultimate-Guitar.com database.

                                    Type "ultimate guitar tabs" in Apple
                                    App Store's or Android Market's
                                    search to find the application.
------------------------------------------------------------------

  PAUL McCARTNEY - HEART OF THE COUNTRY. (Paul & Linda  McCartney) 
                   Released in the UK as B side of BACK SEAT OF MY 
                   CAR single on 13th August 1971.

------------------------------------------------------------------

  Tabbed by:PJVillanueva





I look high, I look low,
I'm lookin' everywhere I go
Lookin' for a home
In the heart of the country.

I'm gonna move, I'm gonna go,
I'm gonna tell everyone I know
Lookin' for a home
In the heart of the country.

Heart of the country
Where the holy people grow,
Heart of the country,
Smell the grass in the meadow.

Wo Wo Wo.

Want a horse, I want sheep,
I want to get me a good night's sleep
Livin ' in a home
In the heart of the country.

I'm gonna move, I'm gonna go,
I'm gonna tell everyone I know
Livin' in a home
In the heart of the country.

Heart of the country
Where the holy people grow,
Heart of the country,
Smell the grass in the meadow.

Wo Wo Wo.



    To match the recording you should tune your guitar a whole 
    step down (E A D G B e to D G C F A d) and then play it in  
    the key of C.



                                     
  
e|------- ------- ------- -------|------- ------- ------- -------|
B|-------------------------------|-------------------------------|
G|-------------------------------|-------------------------------|
D|-------------------------------|-------------------------------|
A|-------------------------------|------------------------2------|
E|-------------------------------|-------------------------------|
                                                      I   look           



  C                               Em
e|------- 0------ ------- 0------|------- 0----0- -----0- 0------|
B|--------1---------------1------|--------0----0-------0--0------|
G|--------0---------------0------|--------0----0-------0--0------|
D|--------2---------------2------|--------2----2-------2--2------|
A|3------------------------------|2------------------------------|
E|----------------3--------------|----------------0--------------|
  high,               I   loon    low,               I'm  lookin' 



  Am  
e|0------ 0----0- ------- 0------|------- 0----0- 0----0- -------|
B|1-------1----1----------1------|--------1----1--1----1---------|
G|2-------2----2----------2------|--------2----2--2----2---------|
D|2-------2----2----------2------|--------2----2--2----2---------|
A|0------------------------------|0-----------------------2------|
E|----------------0--------------|-------------------------------|
  everywhere           I  go



  C                               E7
e|------- 0----0- 0----0- 0------|------- 0------ 0------ 0------|
B|--------1----1--1----1--1------|--------3-------3-------3------|          
G|--------0----0--0----0--0------|--------1-------1-------1------|
D|--------2----2--2----2--2------|--------2-------2-------2------|
A|3------------------------------|--------2-------2-------2------|
E|-------------------------------|0------------------------------|
  lookin'         for  a       home       in      heart   the  country.
                                               the     of


  Am
e|------- 0----0- 0----0- 0------|------- 0----0- 0------ -------|
B|--------1----1--1----1--1------|--------1----1--1--------------|
G|--------2----2--2----2--2------|--------2----2--2--------------|
D|--------2----2--2----2--2------|--------2----2--2--------------|
A|0------------------------------|0------------------------------|
E|-------------------------------|-------------------------------|         
                                                          gonna 
                                                       I'm

  00:11

e|------- 0----0- ------- 0------|------- 0----0- -----0- 0------|
B|--------1----1----------1------|--------0----0-------0--0------|
G|--------0----0----------0------|--------0----0-------0--0------|
D|--------2----2----------2------|--------2----2-------2--2------|
A|3------------------------------|2------------------------------|
E|----------------3--------------|----------------0--------------|
  move,                   gonna   go,                     gonna 
                        I'm                             I'm
e|------- ------- ------- -------|------- ------- 7------ -------|
B|3/5----------------------------|8------------------------------|
G|-------------------------------|----------------7--------------|
D|3/5----------------------------|9------------------------------|
A|-------------------------------|-------------------------------|
E|-------------------------------|-------------------------------|

 



e|0------ 0------ ------- 0------|------- 0------ 0------ -------|
B|1-------1---------------1------|--------1-------1--------------|
G|2-------2---------------2------|--------2-------2--------------|
D|2-------2---------------2------|--------2-------2--------------|
A|0------------------------------|0-----------------------2------|
E|----------------0--------------|-------------------------------|
  tell everyone        I  know
e|8------ ------- ------- -------|------- ------- ------- -------|
B|----------------10--------\----|5------------------------------|
G|9------------------------------|-------------------------------|
D|----------------10--------\----|7------------------------------|
A|-------------------------------|-------------------------------|
E|-------------------------------|-------------------------------|





e|------- 0----0- ------- 0------|------- 0------ 0------ 0------|
B|--------1----1----------1------|--------3-------3-------3------|
G|--------0----0----------0------|--------1-------1-------1------|
D|--------2----2----------2------|--------2-------2-------2------|
A|3------------------------------|--------2-------2-------2------|
E|----------------3--------------|0------------------------------|
  Lookin'         for  a       home       in      heart   the  country.
                                               the     of
e|------- ------- 3------ -------|------- ------- ------- -------|
B|3/5----------------------------|5---------------7/9------------|
G|-------------------------------|-------------------------------|
D|3/5----------------------------|6---------------7/9------------|
A|-------------------------------|-------------------------------|
E|-------------------------------|-------------------------------|





e|------- 0----0- 0------ 0------|------- 0------ ------- -------|
B|--------1----1--1-------1------|--------1----------------------|
G|--------2----2--2-------2------|--------2----------------------|
D|--------2----2--2-------2------|--------2----------------------|
A|0------------------------------|0------------------------------|     
E|-------------------------------|----------------0-------3B4----|

e|------- ------- ------- -------|------- ------- ------- -------|
B|10-----------------------------|-------------------------------|
G|-------------------------------|-------------------------------|
D|10-----------------------------|-------------------------------|
A|-------------------------------|-------------------------------|
E|-------------------------------|----------------0-------3B4----|



  00:23
  A7
e|------- 3----3- ------- 3------|------- 3------ 3------ 0------|
B|--------2----2----------2------|--------2-------2-------2------|
G|--------0----0----------0------|--------0-------0-------0------|
D|--------2----2----------2------|--------2-------2-------2------|
A|0-------0----0----------0------|--------0-------0-------0------|
E|-------------------------------|-------------------------------|
  Heart           of      the  country            where   the 
e|------- ------- ------- -------|------- ------- ------- -------|
B|----------------4/5------------|-------------------------------|
G|----------------5/6------------|-------------------------------|
D|----------------4/5------------|-------------------------------|
A|0------------------------------|-------------------------------|
E|-------------------------------|-------------------------------|




          D9                              A7
e|------- 0------ -----0- 0------|------- 3----3- ------- 3------|
B|--------5------------5--5------|--------2----2----------2------|
G|--------5------------5--5------|--------0----0----------0------|
D|--------4------------4--4------|--------2----2----------2------|
A|--------5------------5--5------|--------0----0----------0------|
E|-------------------------------|-------------------------------|
  holy         people     grow,    
e|5------ ------- ------- -------|------- ------- ------- -------|
B|5------------------------------|--------8-------8-/-10---------|
G|5------------------------------|-------------------------------|
D|4------------------------------|-------------------------------|
A|5------------------------------|-------------------------------|
E|-------------------------------|-------------------------------|





e|------- 3------ ------- 0------|------- 3------ 3------ -------|
B|--------2---------------2------|--------2-------2-------0------|
G|--------0---------------0------|--------0-------0-------0------|
D|--------2---------------2------|--------2-------2-------0------|
A|--------0---------------0------|--------0-------0--------------|
E|-------------------------------|-------------------------------|
  Heart           of      the  country            smell   the  grass 
e|------- ------- ------- -------|------- ------- ------- -------|
B|4/5----------------------------|-------------------------------|
G|5/6----------------------------|-------------------------------|
D|4/5----------------------------|-------------------------------|
A|0------------------------------|-------------------------------|
E|-------------------------------|-------------------------------|




  D9
e|0------ 0----0- ------- 0------|------- 0----0- -----0- 0------|
B|5-------5----5----------5------|--------5----5-------5--5------|
G|5-------5----5----------5------|--------5----5-------5--5------|
D|4-------4----4----------4------|--------4----4-------4--4------|
A|5-------5----5----------5------|5-------5----5-------5--5------|
E|-------------------------------|-------------------------------|
          on      meadow
               the
e|5------ ------- ------- -------|------- ------- ------- -------|
B|5------------------------------|-------------------------------|
G|5------------------------------|-------------------------------|
D|4------------------------------|-------------------------------|
A|5------------------------------|-------------------------------|
E|-------------------------------|-------------------------------|


                                                             00:37
                                  X       X       X       x  

e|5------ -----5- ------- 5------|------- ------- ------- -------|
B|5-------x----5-------x--5------|-----------------------------4-|
G|5-------x----5-------x--5------|-------------------------------|
D|4-------x----4-------x--4------|-------------------------------|
A|5------------5----------5------|-------------------------------|
E|-------------------------------|-------------------------------|

e|5------ -----5- ------- 5------|------- ------- ------- -------|
B|5------------5----------5------|-------------------------------|
G|5------------5----------5------|-------------------------------|
D|4------------4----------4------|-------------------------------|
A|5------------5----------5------|-------------------------------|
E|-------------------------------|-------------------------------|
  Wo           wo         wo                                 (now                        


                                                  X

e|0------ 0----3- 5----3- 0----5-|------- ------- ------- -------|
B|-----4-------------------------|----------------5------------4-|
G|-------------------------------|----------------6--------------|
D|-------------------------------|----------------5--------------|
A|-------------------------------|----------------0--------------|
E|-------------------------------|-------------------------------|
  some scat singing)




e|0------ 0----3- 5----3- 0----5-|-----8- -----8- -----8- ----8B10
B|-----4-------------------------|-------------------------------|
G|-------------------------------|-------------------------------|
D|-------------------------------|-------------------------------|
A|-------------------------------|-------------------------------|
E|-------------------------------|-------------------------------|


     


e|-----8-P5----3- 5----3- 0------|0----3- 5----3-0------- -------|
B|-----------------------------4-|--------------------3B4R3----1-|
G|-------------------------------|-------------------------------|
D|-------------------------------|-------------------------------|
A|-------------------------------|-------------------------------|
E|-------------------------------|-------------------------------|
 


 
  A                               D
e|------- 0----0- 0------ 0------|2------ ------- ------- -------|
B|--------2----2--2-------0------|3-------3---------------x------|
G|--------2----2--2-------0------|2-----------------------x------|
D|--------2----2--2--------------|0-----------------------x------|
A|0---------------0--------------|-------------------------------|
E|----------------0--------------|-------------------------------|

e|------- ------- ------- -------|------- ------- ------- -------|
B|-------------------------------|-------------------------------|
G|-------------------------------|-------------------------------|
D|-------------------------------|-------------------------------|
A|-------------------------------|-----0--2--B-3-R2--P-0---------|
E|------------------------0----1-|2-----------------------2----0-|



                                  x       x       x       x
  F            G          A
e|5------ -----7- ------- 9------|------- ------- ------- -------|
B|6------------8---------10------|-------------------------------|
G|5------------7----------9------|-------------------------------|
D|-------------------------------|-------------------------------|
A|-------------------------------|------------------------2------|
E|-------------------------------|-------------------------------|
                                                          Want  a
e|------- ------- ------- -------|------- ------- ------- -------|
B|-------------------------------|-------------------------------|
G|-------------------------------|-------------------------------|
D|-------------------------------|-------------------------------|
A|--------0------------2-/4------|-------------------------------|
E|1------------3---------/5------|-------------------------------|               



  00:51
  x

e|------- 0----0- ------- 0------|------- 0----0- ------- 0------|
B|--------1----1----------1------|--------0----0----------0------|
G|--------0----0----------0------|--------0----0----------0------|
D|--------2----2----------2------|--------2----2----------2------|
A|3------------------------------|2------------------------------|
E|----------------3--------------|----------------0--------------|
  horse,               I  got  a sheep,               I'm gonna  
                                                               



e|0------ 0----0- ------- 0------|------- 0----0- 0----0- -------|
B|1-------1----1----------1------|--------1----1--1----1---------|
G|2-------2----2----------2------|--------2----2--2----2---------|
D|2-------2----2----------2------|--------2----2--2----2---------|
A|0------------------------------|0-----------------------2------|
E|----------------0--------------|-------------------------------|    
  get  me a    good    night's    sleep
e|------- ------- ------- -------|------- ------- ------- -------|
B|-------------------------------|-------------------------------|
G|-------------------------------|-------B9--R-7--5--------------|
D|-------------------------------|---------------------7--5------|
A|-------------------------------|-----------------------------7\5
E|-------------------------------|-------------------------------|





e|------- 0----0- 0------ 0------|------- 0------ 0------ 0------|              
B|--------1----1--1-------1------|--------3-------3-------3------|          
G|--------0----0--0-------0------|--------1-------1-------1------|
D|--------2----2--2-------2------|--------2-------2-------2------|
A|3------------------------------|--------2-------2-------2------|
E|-------------------------------|0------------------------------|
  living          in   a       home       in      heart   the  country.
                                               the      of
e|------- ------- ------- -------|------- ------- ------- -------|
B|-------------------------------|-------------------------------|
G|-------------------------------|-------------------------------|
D|-------------------------------|-------------------------------|
A|3------------------------------|-------------------------------|
E|-------------------------------|-------------------------------|





e|------- 0----0- 0----0- 0------|------- 0------ ------- -------|          
B|--------1----1--1----1--1------|--------1----------------------|
G|--------2----2--2----2--2------|--------2----------------------|
D|--------2----2--2----2--2------|--------2----------------------|
A|0------------------------------|0----------------------------2-|
E|-------------------------------|-------------------------------|         
                                                      I'm gonna 
e|------- ------- ------- -------|------- ------- ------- -------|
B|-------------------------------|-------------------------------|
G|-------------------------------|-------------------------------|
D|--------5----------------------|-------------------------------|
A|----------------7\5--3---------|-------------------------------|
E|------------------------5------|5------------------------------|



  01:02

e|------- 0----0- ------- 0------|------- 0------ 0------ 0------|
B|--------1----1----------1------|--------0-------0-------0------|          
G|--------0----0----------0------|--------0-------0-------0------|
D|--------2----2----------2------|--------2-------2-------2------|
A|3------------------------------|2---------------2--------------|
E|----------------3--------------|----------------0--------------|
  move,               I'm gonna   go,                 I'm gonna 
e|------- ------- ------- -------|------- ------- 7------ -------|
B|3/5----------------------------|8------------------------------|
G|----------------5--------------|----------------7--------------|
D|3/5----------------------------|9------------------------------|
A|-------------------------------|-------------------------------|
E|-------------------------------|-------------------------------|

 



e|------- 0------ ------- 0------|------- 0----0- 0----0- -------|          
B|--------1---------------1------|--------1----1--1----1---------|
G|--------2---------------2------|--------2----2--2----2---------|
D|--------2---------------2------|--------2----2--2----2---------|
A|0------------------------------|0-----------------------2------|
E|----------------0--------------|-------------------------------|
  tell everyone       I   know                 oooohh  hooooooooo
e|8------ ------- ------- -------|------- ------- ------- -------|
B|----------------10--------\----|5------------------------------|
G|9------------------------------|-------------------------------|
D|----------------10--------\----|7------------------------------|
A|-------------------------------|-------------------------------|
E|-------------------------------|-------------------------------|





e|------- 0----0- ------- 0------|------- 0------ 0------ 0------|         
B|--------1----1----------1------|--------3-------3-------3------|
G|--------0----0----------0------|--------1-------1-------1------|
D|--------2----2----------2------|--------2-------2-------2------|
A|3------------------------------|--------2-------2-------2------|
E|----------------3--------------|0------------------------------|
  oooooooooooooooooohh                 in the  heart      the  country.
                                                       of
e|------- ------- 3------ -------|------- ------- ------- -------|
B|3/5----------------------------|5---------------7/9------------|
G|-------------------------------|-------------------------------|
D|3/5----------------------------|6---------------7/9------------|
A|-------------------------------|-------------------------------|
E|-------------------------------|-------------------------------|





e|------- 0------ 0------ 0------|------- 0------ ------- -------|       
B|--------1-------1-------1------|--------1----------------------|     
G|--------2-------2-------2------|--------2----------------------|
D|--------2-------2-------2------|--------2----------------------|
A|0------------------------------|0------------------------------|
E|-------------------------------|----------------0-------3B4----|

e|------- ------- ------- -------|------- ------- ------- -------|
B|10-----------------------------|-------------------------------|
G|-------------------------------|-------------------------------|
D|10-----------------------------|-------------------------------|
A|-------------------------------|-------------------------------|
E|-------------------------------|----------------0-------3B4----|




          A7
e|------- 3------ ------- 3------|------- 3------ ------- 3------|    
B|--------2---------------2------|--------2---------------2------|
G|--------0---------------0------|--------0---------------0------|
D|--------2---------------2------|--------2---------------2------|
A|--------0---------------0------|--------0---------------0------|
E|-------------------------------|-------------------------------|
  Heart           of      the country             where   the 
e|------- ------- ------- -------|------- ------- 3------ -------|
B|----------------4/5------------|-------------------------------|
G|----------------5/6------------|-------------------------------|
D|----------------4/5------------|-------------------------------|
A|0------------------------------|-------------------------------|
E|-------------------------------|-------------------------------|



 
          D9                              A7
e|------- 0------ ------- 0------|------- 3------ 3------ 3------|
B|--------5---------------5------|--------2-------2-------2------|
G|--------5---------------5------|--------0-------0-------0------|
D|--------4---------------4------|--------2-------2-------2------|
A|--------5---------------5------|--------0-------0-------0------|    
E|-------------------------------|-------------------------------|
  holy        people      grow,    
e|5------ ------- ------- -------|------- ------- ------- -------|
B|5------------------------------|--------8-------8-/-10---------|
G|5------------------------------|-------------------------------|
D|4------------------------------|-------------------------------|
A|5------------------------------|-------------------------------|
E|-------------------------------|-------------------------------|




          
e|------- 3------ ------- 3------|------- 3------ ------- 0------|         
B|--------2---------------2------|--------2---------------0------|
G|--------0---------------0------|--------0---------------0------|
D|--------2---------------2------|--------2---------------0------|
A|--------0---------------0------|--------0----------------------|
E|-------------------------------|-------------------------------|
  Heart           of      the country             smell   the grass 
e|------- ------- ------- -------|------- ------- ------- -------|
B|4/5----------------------------|-------------------------------|
G|5/6----------------------------|-------------------------------|
D|4/5----------------------------|-------------------------------|
A|0------------------------------|-------------------------------|
E|-------------------------------|-------------------------------|




          D9
e|------- 5------ ------- 5----5-|5----5- 5----5- -----5- 5------|              
B|--------5---------------5----5-|5----5--5----5-------5--5------|
G|--------5---------------5----5-|5----5--5----5-------5--5------|
D|--------4---------------4----4-|4----4--4----4-------4--4------|
A|--------5---------------5----5-|5----5--5----5-------5--5------|
E|-------------------------------|-------------------------------|
          on  the meadow
e|5------ ------- ------- -------|------- ------- ------- -------|
B|5------------------------------|-------------------------------|
G|5------------------------------|-------------------------------|
D|4------------------------------|-------------------------------|
A|5------------------------------|-------------------------------|
E|-------------------------------|-------------------------------|


                                                          
                                  X       X       X       x  

e|5------ -----5- ------- 5------|------- ------- ------- -------|
B|5-------x----5-------x--5------|-------------------------------|       
G|5-------x----5-------x--5------|-------------------------------|
D|4-------x----4-------x--4------|-------------------------------|
A|5-------x----5-------x--5------|-------------------------------|
E|-------------------------------|-------------------------------|

e|5------ ----5-- ------- 5------|------- ------- ------- -------|
B|5-----------5-----------5------|-------------------------------|
G|5-----------5-----------5------|-------------------------------|
D|4-----------4-----------4------|-------------------------------|
A|5-----------5-----------5------|-------------------------------|
E|-------------------------------|-------------------------------|
  Wo          wo          wo                                (again                       


                                                  X

e|------- ------- ------- -------|------- ------- ------- -------|
B|-------------------------------|-----------------------------4-|
G|-------------------------------|-------------------------------|
D|-------------------------------|-------------------------------|
A|-------------------------------|-------------------------------|
E|-------------------------------|-------------------------------|
  some more scat)




e|0------ 0----3- 5----3- 0----5-|------- ------- ------- -------|
B|-----4-------------------------|-----------------------------4-|
G|-------------------------------|-------------------------------|
D|-------------------------------|-------------------------------|
A|-------------------------------|----------------0--------------|
E|-------------------------------|-------------------------------|
  




e|0------ 0----3- 5----3- 0----5-|-----8- -----8- -----8- ----8B10
B|-----4-------------------------|-------------------------------|
G|-------------------------------|-------------------------------|
D|-------------------------------|-------------------------------|
A|-------------------------------|-------------------------------|
E|-------------------------------|-------------------------------|


     


e|-----8-P5----3- 5----3- 0------|0----3- 5----3-0------- -------|
B|-----------------------------4-|--------------------3B4R3----1-|
G|-------------------------------|-------------------------------|
D|-------------------------------|-------------------------------|
A|-------------------------------|-------------------------------|
E|-------------------------------|-------------------------------|
  


 

e|------- 0----0- 0----0- 0------|2------ ------- ------- -------|
B|--------2----2--2----2--2------|3-------3---------------3------|
G|--------2----2--2----2--2------|2-----------------------2------|
D|--------2----2--2----2--2------|0-----------------------0------|
A|--------0----0--0----0--0------|-------------------------------|
E|-------------------------------|-------------------------------|

e|------- ------- ------- -------|------- ------- ------- -------|
B|-------------------------------|-------------------------------|
G|-------------------------------|-------------------------------|
D|-------------------------------|-------------------------------|
A|-------------------------------|-----0--2--B-3-R2--P-0---------|
E|------------------------0----1-|2-----------------------2----0-|



                                  x       x       x       x

e|5------ ----7-- ------- 9------|------- ------- ------- -------|
B|6-----------8----------10------|-------------------------------|
G|5-----------7-----------9------|-------------------------------|
D|-------------------------------|-------------------------------|
A|-------------------------------|------------------------2------|
E|-------------------------------|-------------------------------|
                                                  Oooh I  want a
e|------- ------- ------- -------|------- ------- ------- -------|
B|-------------------------------|-------------------------------|
G|-------------------------------|-------------------------------|
D|-------------------------------|-------------------------------|
A|--------0-----------2-/-4------|-------------------------------|
E|1-----------3---------/-5------|-------------------------------|           



  01:41

e|------- 0----0- ------- 0------|------- 0----0- ------- 0------|
B|--------1----1----------1------|--------0----0----------0------|
G|--------0----0----------0------|--------0----0----------0------|
D|--------2----2----------2------|--------2----2----------2------|
A|3------------------------------|2------------------------------|
E|----------------3--------------|----------------0--------------|
  horse,               I  got  a sheep,               I'm gonna  
                                                               



e|------- 0----0- -----0- 0------|------- 0----0- 0------ -------|
B|--------1----1-------1--1------|--------1----1--1--------------|
G|--------2----2-------2--2------|--------2----2--2--------------|
D|--------2----2-------2--2------|--------2----2--2--------------|
A|0------------------------------|0-----------------------2------|
E|----------------0--------------|-------------------------------|    
  get  me a    good    night's    sleep
e|------- ------- ------- -------|------- ------- ------- -------|
B|-------------------------------|--------8----------------------|
G|-------------------------------|7B9---------7-B-9--R-7--5------|
D|-------------------------------|-------------------------------|
A|-------------------------------|-------------------------------|
E|-------------------------------|-------------------------------|




                                                                    
e|0------ 0------ 0------ 0------|------- 0------ 0----0- 0------|              
B|1-------1-------1-------1------|--------3-------3----3--3------|          
G|0-------0-------0-------0------|--------1-------1----1--1------|
D|2-------2-------2-------2------|--------2-------2----2--2------|
A|3-------3-------3-------3------|--------2-------2----2--2------|
E|-------------------------------|--------0-------0----0--0------|
  living          in   a       home       in      heart   the  country.
                                               the      of



e|------- 0------ 0----0- 0------|------- 0----0- 0------ -------|          
B|--------1-------1----1--1------|--------1----1--1--------------|
G|--------2-------2----2--2------|--------2----2--2--------------|
D|--------2-------2----2--2------|--------2----2--2--------------|          
A|--------0-------0----0--0------|--------0----0--0-------2------|
E|-------------------------------|-------------------------------|         
                                                      I'm gonna 
e|------- ------- ------- -------|------- ------- ------- -------|
B|-------------------------------|-------------------------------|
G|--------7B9-----7--P-5---------|7B9-----7--P-5-----------------|
D|------------------------7------|----------------7--------------|
A|-------------------------------|-------------------------------|
E|-------------------------------|-------------------------------|



  01:52

e|------- 0----0- ------- 0------|------- 0------ ------- 0------|
B|--------1----1----------1------|--------0---------------0------|          
G|--------0----0----------0------|--------0---------------0------|
D|--------2----2----------2------|--------2---------------2------|
A|3------------------------------|2------------------------------|
E|----------------3--------------|----------------0--------------|          
  move,               I'm gonna   go,                 I'm gonna 
e|------- ------- ------- -------|------- ------- 7------ -------|
B|3/5----------------------------|8------------------------------|
G|----------------5--------------|----------------7--------------|
D|3/5----------------------------|9------------------------------|
A|-------------------------------|-------------------------------|
E|-------------------------------|-------------------------------|

 



e|0------ 0------ ------- 0------|------- 0----0- ------- -------|          
B|1-------1---------------1------|--------1----1-----------------|             
G|2-------2---------------2------|--------2----2-----------------|
D|2-------2---------------2------|--------2----2-----------------|
A|0-------0---------------0------|0-----------------------2------|
E|-------------------------------|-------------------------------|
  tell everyone       I   know                 oooohh  hooooooooo
e|8------ ------- ------- -------|------- ------- ------- -------|
B|----------------10--------\----|5------------------------------|
G|9------------------------------|-------------------------------|
D|----------------10--------\----|7------------------------------|
A|-------------------------------|-------------------------------|
E|-------------------------------|-------------------------------|





e|------- 0----0- ------- 0------|------- 0------ 0------ -------|         
B|--------1----1----------1------|--------3-------3--------------|
G|--------0----0----------0------|--------1-------1--------------|                 
D|--------2----2----------2------|--------2-------2--------------|
A|3------------------------------|--------2-------2--------------|
E|----------------3--------------|0-------0-------0--------------|
  oooooooooooooooooohh                 in the  heart      the  country.
                                                       of
e|------- ------- 3------ -------|------- ------- ------- -------|
B|3/5----------------------------|5---------------7/9------------|
G|-------------------------------|-------------------------------|
D|3/5----------------------------|6---------------7/9------------|
A|-------------------------------|-------------------------------|
E|-------------------------------|-------------------------------|





e|------- 0----0- 0------ 0------|------- 0------ ------- -------|               
B|--------1----1--1-------1------|--------1----------------------|     
G|--------2----2--2-------2------|--------2----------------------|
D|--------2----2--2-------2------|--------2----------------------|
A|0-------0----0--0-------0------|0------------------------------|
E|-------------------------------|----------------0-------3B4----|

e|------- ------- ------- -------|------- ------- ------- -------|
B|10-----------------------------|-------------------------------|
G|-------------------------------|-------------------------------|
D|10-----------------------------|-------------------------------|
A|-------------------------------|-------------------------------|
E|-------------------------------|----------------0-------3B4----|



  02:04

e|------- 3------ 3------ 3------|------- 3------ 3------ 0------|    
B|--------2-------2-------2------|--------2-------2-------2------|           
G|--------0-------0-------0------|--------0-------0-------0------|
D|--------2-------2-------2------|--------2-------2-------2------|
A|0-------0-------0-------0------|0-------0-------0-------0------|
E|-------------------------------|-------------------------------|
  Heart           of      the country             where   the 
e|------- ------- ------- -------|------- ------- ------- -------|
B|----------------4/5------------|-------------------------------|
G|----------------5/6------------|-------------------------------|
D|----------------4/5------------|-------------------------------|
A|0------------------------------|-------------------------------|
E|-------------------------------|-------------------------------|





e|------- 0------ 0------ 0------|------- 3------ 3------ 3------|
B|--------5-------5-------5------|--------2-------2-------2------|          
G|--------5-------5-------5------|--------0-------0-------0------|
D|--------4-------4-------4------|--------2-------2-------2------|
A|--------5-------5-------5------|--------0-------0-------0------|    
E|-------------------------------|-------------------------------|
  holy        people      grow,    
e|5------ ------- ------- -------|------- ------- ------- -------|
B|5------------------------------|--------8-------8-/-10---------|
G|5------------------------------|-------------------------------|
D|4------------------------------|-------------------------------|
A|5------------------------------|-------------------------------|
E|-------------------------------|-------------------------------|





e|------- 3------ 3------ 3------|------- 3------ 3------ 0------|         
B|--------2-------2-------2------|--------2-------2-------0------|              
G|--------0-------0-------0------|--------0-------0-------0------|
D|--------2-------2-------2------|--------2-------2-------0------|
A|--------0-------0-------0------|--------0-------0--------------|
E|-------------------------------|-------------------------------|
  Heart           of      the country             smell   the grass 
e|------- ------- ------- -------|------- ------- ------- -------|
B|4/5----------------------------|-------------------------------|
G|5/6----------------------------|-------------------------------|
D|4/5----------------------------|-------------------------------|
A|0------------------------------|-------------------------------|
E|-------------------------------|-------------------------------|





e|------- 5----5- 5------ 5----5-|5------ 5----5- 5----5- 5------|              
B|--------5----5--5-------5----5-|5-------5----5--5----5--5------|         
G|--------5----5--5-------5----5-|5-------5----5--5----5--5------|
D|--------4----4--4-------4----4-|4-------4----4--4----4--4------|
A|--------5----5--5-------5----5-|5-------5----5--5----5--5------|
E|-------------------------------|-------------------------------|
          on  the meadow
e|5------ ------- ------- -------|------- ------- ------- -------|
B|5------------------------------|-------------------------------|
G|5------------------------------|-------------------------------|
D|4------------------------------|-------------------------------|
A|5------------------------------|-------------------------------|
E|-------------------------------|-------------------------------|


                                                          
                          (.   

e|5------ -----5- ------- 5------|------- ------- ------- -------|
B|5-------x----5-------x--5------|-------------------------------|       
G|5-------x----5-------x--5------|-------------------------------|
D|4-------x----4-------x--4------|-------------------------------|
A|5-------x----5-------x--5------|-------------------------------|
E|-------------------------------|-------------------------------|

e|------- ------- ------- 17-----|------- ------- ------- -------|
B10-----------------------17-----|-------------------------------|
G|9-----------------------17-----|-------------------------------|
D10-----------------------17-----|-------------------------------|
A|9------------------------------|-------------------------------|
E10------------------------------|-------------------------------|
  Wo          wo          wo   







        B  Bend
        R  Release
        /  Slide up
        \  Slide down
        H  Hammer-on
        P  Pull-off
        ~  Vibrato
        +  Harmonic
        x  Mute note
        .  Play note like a dot in standard notation
        ^  Ties two notes together
        (. Pause



comments
print report bad tab
I want to post or [tab]
guest
You may want to rate the tab now too:
select rating
Please do not post tabs as comments. Select "correction" instead!