Oops, an error
Loading. Please wait.

Hi Hi Hi Tab

5,916 views 15 this week
no commentswrite comment
1 2 3 4 5
excellent!
x 4
Autoscroll
+/-
esc
set tempo
stop
Contributor
WARNING: You are trying to view
                                    content from Ultimate-Guitar.com
                                    in an unauthorized application,
                                    which is prohibited.

                                    Please use an official Ultimate
                                    Guitar Tabs application for iPhone,
                                    iPad or Android to access legitimate
                                    chords, guitar, bass, and drum tabs
                                    from Ultimate-Guitar.com database.

                                    Type "ultimate guitar tabs" in Apple
                                    App Store's or Android Market's
                                    search to find the application.
----------------------------------------------------------------

     PAUL McCARTNEY - HI HI HI. Released as a single with C MOON
                      as B side on the 1st December 1972.  

----------------------------------------------------------------

     Tabbed by:PJVillanueva






Well, when I met you at the station
You were standing with a bootleg in your hand.
I took you back to my little place
For a taste of a multicoloured band.
We're gonna get Hi Hi Hi,
The night is young.
She'll be my funky little mama,
Gonna rock it 
and we've only just begun.

We're gonna get Hi Hi Hi
With the music on.
Won't say bye-bye bye-bye bye-bye bye-bye
'Til the night is gone.                                    
I'm gonna do it to you, gonna do you
Sweet banana, you'll never give up.
We're gonna get Hi Hi Hi in the midday sun.                

Well, well, take off your face,                        
Recover from the trip you've been on.
I want you to lie on the bed,
Get you ready for my polygon.
I'm gonna do it to you, gonna do you
Sweet banana, you've never been done.            
Yes, I go like a rabbit, gonna grab it,
Gonna do it 'til the night is done.

We're gonna get Hi Hi Hi
With the music on.
Won't say bye-bye bye-bye bye-bye bye-bye
'Til the night is gone.
I'm gonna do it to you, gonna do it,
Sweet banana, you'll never give up.
We're gonna get Hi Hi Hi, we're gonna get Hi Hi Hi,
We're gonna get Hi Hi Hi in the midday sun.






   To play the slide guitar part you must tune  
   your guitar to open E. (E, B, E, G#, B, e)





   12/8


  X      X      X      X      X      X      X      X
 (.
  B7sus2
e|2----- ------ ------ ------|------ ------ ------ ------|
B|2--------------------------|---------------------------|
G|2--------------------------|---------------------------|
D|4--------------------------|---------------------------|
A|2--------------------------|---------------------------|
E|2--------------------------|---------------------------|
  
e|19--19 ~----- --19-~ --1919|191919 191919 191919 191919|
B|---------------------------|---------------------------|
G#---------------------------|---------------------------|
E|---------------------------|---------------------------|
B|---------------------------|---------------------------|
E|---------------------------|---------------------------|
  (bottleneck slide guitar)



  B5     B6     B5 ...
e|------ ------ ------ ------|------ ------ ------ ------|
B|---------------------------|---------------------------|
G|---------------------------|---------------------------|
D|---------------------------|---------------------------|
A|9---9-11--11--9---9-11--11-|9---9-11--11--9---9-11---9-\
E|7---7--7---7--7---7--7---7-|7---7--7---7--7---7--7---7-\

e|191919 191919 191919 191919|191919 191919 19-\-- ------|
B|---------------------------|-------------------------5/|
G#---------------------------|---------------------------|
E|---------------------------|---------------------------|
B|---------------------------|---------------------------|
E|---------------------------|---------------------------|

e|12---- ----10 ------ ------|------ ------ 9-\--- ------|
B|---------------------------|----10\9-----10-\----8-/-9-|
G|----13\11------------------|---------------------8-/-9-|
D|---------------------------|---------------------------|
A|---------------------------|---------------------------|
E|---------------------------|---------------------------|




  E5     E6     E5 ... 
e|------ ------ ------ ------|------ ------ ------ ------|
B|---------------------------|---------------------------|
G|---------------------------|---------------------------|
D|---------------------------|---------------------------|
A|2---2--4---4--2---2--4---4-|2---2--4---4--2---2--4---2-/
E|0---0--0---0--0---0--0---0-|0---0--0---0--0---0--0---0-/
      
e|----12 12--12 ------ ------|------ ------ ----7- -/----|
B|12------------12-\10-------|---------------------------|
G#-------------------10/12---|---------------------------|
E|-------------------------12|~--------------------------|
B|---------------------------|---------------------------|
E|---------------------------|---------------------------|

e|------ ------ ------ ------|------ ------ ------ ------|
B|----9--------------------9-|---------------------------|
G|---------------------------|---------------------------|
D|-------------------7/9-----|---------------------------|
A|---------------------------|---------------------------|
E|---------------------------|-------------------------2/|





e|------ ------ ------ ------|------ ------ ------ ------|
B|---------------------------|---------------------------|
G|---------------------------|---------------------------|
D|---------------------------|---------------------------|
A|9---9-11--11--9---9-11--11-|9---9-11--11--9---9-11---9-|
E|7---7--7---7--7---7--7---7-|7---7--7---7--7---7--7---7-|

e|19---- ------ ------ ------|------ ------ ------ ------|
B|-------19\17-------------17/19---------21\19-----19\17-|
G#--------------17/19--------|---------------------------|
E|---------------------------|---------------------------|
B|---------------------------|---------------------------|
E|---------------------------|---------------------------|
  
e|------ ------ ------ ------|------ ------ ------ ----7-|
B|---------------------------|7----------5------5------9-|
G|-----------8---------------|8----------6------6------8-|
D|-----------7---------------|9----------7------7--7---9-|
A|----9----------------------|-------------------------7-|
E|7--------------------------|---------------------------|




  
e|------ ------ ------ ------|------ ------ ------ ------|
B|---------------------------|---------------------------|
G|---------------------------|---------------------------|
D|---------------------------|---------------------------|
A|2---2--4---4--2---2--4-----|2--------------------------|
E|0---0--0---0--0---0--0-----|0--------------------------|
                                     Well,         when I 
e|------ ------ ------ ------|------ ------ ------ ------|
B17\16---14-----12-----------|---------------------------|
G#------------------12\10----|---------------------------|
E|---------------------------|12-------------------------|
B|---------------------------|---------------------------|
E|---------------------------|---------------------------|
 
e|------ ------ ------ ------|------ ------ ------ ------|
B|---------------------------|9--------------------------|
G|---------------------------|8--------------------------|
D|---------------------------|9--------------------------|
A|---------------------------|7--------------------------|
E|---------------------------|---------------------------|



      00:19

e|------ ------ ------ ------|------ ------ ------ ------|
B|---------------------------|---------------------------|
G|---------------------------|---------------------------|
D|---------------------------|---------------------------|
A|9---9-11--11--9---9-11--11-|9---9-11--11--9---9-11---2-|
E|7---7--7---7--7---7--7---7-|7---7--7---7--7---7--7---0-|
  met you at the station you         with a        in your 
                          were             bootleg      hand
                            standing   


e|------ ------ ------ ------|------ ------ ------ ------|
B|---------------------------|---------------------------|
G|---------------------------|---------------------------|
D|---------------------------|---------------------------|
A|2---2--4---4--2---2--4---4-|2---2--4---4--2---2--4---2-/
E|0---0--0---0--0---0--0---0-|0---0--0---0--0---0--0---0-|
                                         I  took   back  
                                                you    to
e|------ ------ ------ ------|------ ------ ------ ------|
B|---------------------------HPHPHPH---------------------|
G|--------------------------01010101-----9-\-------------|
D|---------------------------|-----------9-\-------------|
A|---------------------------|---------------------------|
E|---------------------------|---------------------------|





e|------ ------ ------ ------|------ ------ ------ ------|
B|---------------------------|---------------------------|
G|---------------------------|---------------------------|
D|---------------------------|---------------------------|
A|9---9-11--11--9---9-11--11-|9---9-11--11--9---9-11---9-|
E|7---7--7---7--7---7--7---7-|7---7--7---7--7---7--7---7-|
  my  little place  for a  taste  of a   multicoloured band.




e|------ ------ ------ ------|------ ------ ------ ------|
B|---------------------------|---------------------------|
G|---------------------------|---------------------------|
D|---------------------------|---------------------------|
A|2---2--4---4--2---2--4---4-|2---2--4---4--2---2--4---2-/
E|0---0--0---0--0---0--0---0-|0---0--0---0--0---0--0---0-|
                                         We're     get 
                                            gonna
e|------ ------ ------ ------|------ ------ ------ ------|
B|-----------8------8--------|10B12--8B9-----------------|
G|-------7H9----7H9----7---7-|-----------9---------------|
D|-----------------------9---|---------------------------|
A|---------------------------|---------------------------|
E|---------------------------|---------------------------|



                                                                             
  A5     A6     A5 ..
e|------ ------ ------ ------|------ ------ ------ ------|
B|---------------------------|---------------------------|
G|---------------------------|---------------------------|        
D|---------------------------|---------------------------|
A|7---7--9---9--7---7--9---9-|7---7--9---9--7---7--9---7-|
E|5---5--5---5--5---5--5---5-|5---5--5---5--5---5--5---5-|
  Hi            Hi         Hi,           the    is     young
                                             night     



e|------ ------ ------ ------|------ ------ ------ ------|
B|---------------------------|---------------------------|
G|---------------------------|---------------------------|
D|---------------------------|---------------------------|
A|2---2--4---4--2---2--4---4-|2---2--4---4--2---2--4---2-/
E|0---0--0---0--0---0--0---0-|0---0--0---0--0---0--0---0-|
                                                She'll 
                                                   be  my 
e|------ ------ ------ ------|------ ------ 0----- ------|
B|---------------------------|-----HPHPHPH--0------------|
G|---------------------------|----01010101---------------|
D|---------------------------|---------------------------|
A|---------------------------|---------------------------|
E|---------------------------|---------------------------|





e|------ ------ ------ ------|------ ------ ------ ------|
B|---------------------------|---------------------------|
G|---------------------------|---------------------------|
D|---------------------------|---------------------------|
A|9---9-11--11--9---9-11--11-|9---9-11--11--9---9-11---0/|
E|7---7--7---7--7---7--7---7-|7---7--7---7--7---7--7---0-|
    funky  little      gonna      it and only      just 
                mama,      rock        we've           begun.



e|------ ------ ------ ------|------ ------ ------ ------|
B|---------------------------|---------------------------|
G|---------------------------|---------------------------|
D|---------------------------|---------------------------|
A|2---2--4---4--2---2--4---4-|2--------------------------|
E|0---0--0---0--0---0--0---0-|0--------------------------|
                                         We're     get 
                                            gonna

  00:48

e|------ ------ ------ ------|------ ------ ------ ------|
B|---------------------------|---------------------------|
G|---------------------------|---------------------------|
D|---------------------------|---------------------------|
A|9---9-11--11--9---9-11--11-|9---9-11--11--9---9-11---2-|
E|7---7--7---7--7---7--7---7-|7---7--7---7--7---7--7---0-|                  
  Hi            Hi         Hi          with music      on.                          
                                         the                                           



e|------ ------ ------ ------|------ ------ ------ ------|
B|---------------------------|---------------------------|
G|---------------------------|---------------------------|
D|---------------------------|---------------------------|
A|2---2--4---4--2---2--4---4-|2---2--4---4--2---2--4---2-/
E|0---0--0---0--0---0--0---0-|0---0--0---0--0---0--0---0-|
                                            Won't      bye 
                                                say 
e|------ ------ ------ ------|------ ------ ------ ------|
B|-----------8------8------8-10B12---8B9-----------------|
G|-------7H9----7H9----7H9---|-----------9-~----------\--|
D|---------------------------|---------------------------|
A|---------------------------|---------------------------|
E|---------------------------|---------------------------|





e|------ ------ ------ ------|------ ------ ------ ------|
B|---------------------------|---------------------------|
G|---------------------------|---------------------------|
D|---------------------------|---------------------------|
A|9---9-11--11--9---9-11--11-|9---9-11--11--9---9-11---2-|
E|7---7--7---7--7---7--7---7-|7---7--7---7--7---7--7---0-|
  bye bye  bye  bye bye  bye  bye   'til the    is     gone.
                                            night




e|------ ------ ------ ------|------ ------ ------ ------|
B|---------------------------|---------------------------|
G|---------------------------|---------------------------|
D|---------------------------|---------------------------|
A|2---2--4---4--2---2--4---4-|2---2--4---4--2---2--4---2-/
E|0---0--0---0--0---0--0---0-|0---0--0---0--0---0--0---0-|
                                         I'm gonna do  it 
e|------ ------ ------ ------|------ ------ ------ ------|
B|----8------8------8------8-10B12---8B9-----------------|
G|-------7H9----7H9----7H9---|-----------9-~-------------|
D|---------------------------|---------------------------|
A|---------------------------|---------------------------|
E|---------------------------|---------------------------|




  01:02
                                                                           
e|------ ------ ------ ------|------ ------ ------ ------|
B|---------------------------|---------------------------|
G|---------------------------|---------------------------|        
D|---------------------------|---------------------------|
A|7---7--9---9--7---7--9---9-|7---7--9---9--7---7--9---7-|
E|5---5--5---5--5---5--5---5-|5---5--5---5--5---5--5---5-|
  to  you,      do  you    banana,        you'll give  up.
         gonna         sweet                never
e|------ ------ ------ ------|------ ------ ------ ------|
B|---------------------------|---------------------------|
G|-------------~-------------|-------------~-------------|
D|---------------------------|---------------------------|
A|---------------------------|---------------------------|
E|---------------------------|---------------------------|





e|------ ------ ------ ------|------ ------ ------ ------|
B|---------------------------|---------------------------|
G|---------------------------|---------------------------|
D|---------------------------|---------------------------|
A|2------4---4--2---2--4---4-|2---2--4---4--2---2--4---2-/
E|0------0---0--0---0--0---0-|0---0--0---0--0---0--0---0-|
                                         We're     get 
                                             gonna
e|------ ------ ------ ------|------ ------ ------ ------|
B|---------------------------|8-------------8------------|
G|-------9-9-9--9-9-9--9-9-9-|--9-9--9-9-9----9-9--9-9-9-|
D|---------------------------|---------------------------|
A|---------------------------|---------------------------|
E|---------------------------|---------------------------|





e|------ ------ ------ ------|------ ------ ------ ------|
B|---------------------------|---------------------------|
G|---------------------------|---------------------------|
D|---------------------------|---------------------------|
A|9---9-11--11--9---9-11--11-|9---9-11--11--9---9-11---9-|
E|7---7--7---7--7---7--7---7-|7---7--7---7--7---7--7---7-|
  Hi            Hi         Hi          in the          sun.
                                            midday  
e|------ ------ ------ ------|------ ------ ------ ------|
B|---------------------------|---------------------------|
G|---------------------------|--------------8------------|
D|9-~------------------------|---------7-8--9-----\------|
A|---------------------------|------10-------------------|
E|---------------------------|---------------------------|





e|------ ------ ------ ------|------ ------ ------ ------|
B|---------------------------|---------------------------|
G|---------------------------|---------------------------|
D|---------------------------|---------------------------|
A|2---2--4---4--2---2--4---4-|2--------------------------|
E|0---0--0---0--0---0--0---0-|0--------------------------|
  
e|------ ------ ------ ------|------ ------ ------ ------|
B|5--------------------10--8-|---------------------------|
G|------------------9--------|9--------------------------|
D|2--------------------------|---------------------------|
A|---------------------------|---------------------------|
E|---------------------------|---------------------------|    



  01:17
  B7
e|------ ------ ------ ------|------ ------ ------ ------|
B|-----------7---------------|---------------------------|
G|-------8---8---------------|---------------------------|
D|----7--7-------------------|---------------------------|
A|9---9---------------9------|---------------------------|
E|7----------------11--------|---------------------------|

e|------ ----2- ------ ------|------ 2---2- ------ 2---0-|
B|-----------0---------------|-------0---0---------0---0-|
G|-----------2---------------|-------2---2---------2---0-|
D|-----------1---------------|-------1---1---------1-----|
A|-----------2---------------|-------2---2---------2-----|
E|---------------------------|---------------------------|

e|------ ------ ------ ------|------ ------ ------ ------|
B|---------------------------|12---------\--9------------|
G#---------------------------|---------------------------|
E|---------------------------|---------------------------|
B|---------------------------|---------------------------|
E|---------------------------|---------------------------|




  E7
e|------ ------ ------ ------|------ ------ ------ ------|
B|-----------0---------------|---------------------------|
G|-------1---1---------------|---------------------------|
D|----0--0-------------------|---------------------------|
A|2---2----------------------|---------------------------|
E|0--------------------------|---------------------------|

e|------ ----0- ----0- ------|------ ----0- ------ 0-----|
B|-----------0------2--0-----|----0------0---------2-----|
G|-----------1------1--1-----|----1------1---------1-----|
D|-----------2------2--2-----|----2------2---------2-----|
A|-----------2------2--2-----|----2------2---------2-----|
E|-----------0------0--0-----|----0------0---------0-----|

e|------ ------ ------ ------|12---- ----\- 9----- ------|
B|---------------------------|---------------------------|
G#---------------------------|---------------------------|
E|---------------------------|---------------------------|
B|---------------------------|---------------------------|
E|---------------------------|---------------------------|       





e|------ ------ ------ ------|------ ------ ------ ------|
B|---------------------------|---------------------------|
G|-----------8---------------|---------------------------|
D|-------7-------------------|---------------------------|
A|9---9---------------9------|---------------------------|
E|7----------------11--------|---------------------------|

e|------ ------ ------ ------|------ 2---2- ------ 0-----|
B|-----------0--0---0--0---0-|-------0---0---------0-----|
G|-----------2--2---2--2---2-|-------2---2---------1-----|
D|-----------1--1---1--1---1-|-------1---1---------2-----|
A|-----------2--2---2--2---2-|-------2---2---------2-----|
E|---------------------------|---------------------0-----|

e|------ ------ ------ ------|------ ------ ------ ------|
B|---------------------------|12---------\--9------------|
G#---------------------------|---------------------------|
E|---------------------------|---------------------------|
B|---------------------------|---------------------------|
E|---------------------------|---------------------------|
  




e|------ ------ ------ ------|------ ------ ------ ------|
B|-----------0---------------|---------------------------|
G|-------1---1------1--------|---------------------------|
D|----0--0----------0--------|---------------------------|
A|2---2----------------------|---------------------------|
E|0--------------------------|---------------------------|

e|------ ----0- ----0- 0-----|------ ------ ------ ------|
B|-----------0------0--2-----|---------------------------|
G|-----------1------1--1-----|---------------------------|
D|-----------2------2--2-----|---------------------------|
A|-----------2------2--2-----|---------------------------|
E|-----------0------0--0-----|---------------------------|
                                                Well,  well
e|------ ------ ---16- ----/-|24--~- ------ ------ ------|
B|---------------------------|---------------------------|
G#---------------------------|---------------------------|
E|---------------------------|---------------------------|
B|---------------------------|---------------------------|
E|---------------------------|---------------------------|                  



  01:31

e|------ ------ ------ ------|------ ------ ------ ------|
B|---------------------------|---------------------------|
G|---------------------------|---------------------------|
D|---------------------------|---------------------------|
A|9---9-11--11--9---9-11--11-|9---9-11--11--9---9-11-----|
E|7---7--7---7--7---7--7---7-|7---7--7---7--7---7--7-----|
  take   your   face,      recover    the trip  you've 
      off                         from             been on.




e|------ ------ ------ ------|------ ------ ------ ------|
B|---------------------------|---------------------------|
G|---------------------------|---------------------------|
D|---------------------------|---------------------------|
A|2---2--4---4--2---2--4---4-|2---2--4---4--2---2--4---2-/
E|0---0--0---0--0---0--0---0-|0---0--0---0--0---0--0---0-|
                                         I want you to lie 
e|------ ------ ------ ----0-|------ ------ ------ ------|
B|---------------------3-----|---------------------------|
G|----2--~--------/-4--------|4\2P0----------------------|
D|---------------------------|-------2---2--~------------|
A|---------------------------|---------------------------|
E|---------------------------|---------------------------|



  

e|------ ------ ------ ------|------ ------ ------ ------|
B|---------------------------|---------------------------|
G|---------------------------|---------------------------|
D|---------------------------|---------------------------|
A|9---9-11--11--9---9-11--11-|9---9-11--11--9---9-11---9-|
E|7---7--7---7--7---7--7---7-|7---7--7---7--7---7--7---7-|
         on the bed,   Get you ready for my     polygon.




e|------ ------ ------ ------|------ ------ ------ ------|
B|---------------------------|---------------------------|
G|---------------------------|---------------------------|
D|---------------------------|---------------------------|
A|2---2--4---4--2---2--4---4-|2---2--4---4--2---2--4---2-/
E|0---0--0---0--0---0--0---0-|0---0--0---0--0---0--0---0-|
                                         I'm gonna do  it   
e|------ ------ ------ ------|------ ------ ------ ------|
B|---------------------------|---------------------------|
G|---------------------------|---------------------------|
D|---------------------------|-------------------------2/|
A|---------------------------|---------------------------|
E|---------------------------|---------------------------|





e|------ ------ ------ ------|------ ------ ------ ------|
B|---------------------------|---------------------------|
G|---------------------------|---------------------------|        
D|---------------------------|---------------------------|
A|7---7--9---9--7---7--9---9-|7---7--9---9--7---7--9---7-|
E|5---5--5---5--5---5--5---5-|5---5--5---5--5---5--5---5-|
  to  you,      do  you    banana,        you'll been  done
         gonna         sweet                never 
e|------ ------ ------ ------|------ ------ ------ ------|
B|---------------------------|---------------------------|
G|---------------------------|---------------------7-----|
D|7------------------------7-|----7------7------9------9-|
A|---------------------------|---------------------------|
E|---------------------------|---------------------------|





e|------ ------ ------ ------|------ ------ ------ ------|
B|---------------------------|---------------------------|
G|---------------------------|---------------------------|
D|---------------------------|---------------------------|
A|2---2--4---4--2---2--4---4-|2---2--4---4--2---2--4---2-/
E|0---0--0---0--0---0--0---0-|0---0--0---0--0---0--0---0-|
                                         Yes,   I'm    a 
                                                   like
e|------ ------ ------ ------|------ ------ ------ ------|
B|---------------------------|8-------------8------------|
G|9-9-9--9-9-9--9-9-9--9-9-9-|--9-9--9-9-9----9-9--9-9-9-|
D|---------------------------|---------------------------|
A|---------------------------|---------------------------|
E|---------------------------|---------------------------|





e|------ ------ ------ ------|------ ------ ------ ------|
B|---------------------------|---------------------------|
G|---------------------------|---------------------------|
D|---------------------------|---------------------------|
A|9---9-11--11--9---9-11--11-|9---9-11--11--9---9-11-----|
E|7---7--7---7--7---7--7---7-|7---7--7---7--7---7--7-----|
  rabbit, gonna grab   gonna    it 'til the night      done
                    it,    do                   is
e|------ ------ ------ ------|------ ------ ------ ------|
B|---------------------------|---------------------------|
G|---------------------------|---------------------------|
D|9---9------9---------------|9---9------9--9---9--------|
A|---------------------------|---------------------------|
E|---------------------------|---------------------------|          





e|------ ------ ------ ------|------ ------ ------ ------|
B|---------------------------|---------------------------|
G|---------------------------|---------------------------|
D|---------------------------|---------------------------|
A|2---2--4---4--2---2--4---4-|2--------------------------|
E|0---0--0---0--0---0--0---0-|0--------------------------|
                                         We're     get 
                                            gonna
e|------ ------ ------ ------|------ ------ ------ ------|
B|--8-8--8-8-8---------8-8-8-|---------------------------|
G|9-------------9-9-9--------|9-\------------------------|
D|---------------------------|---------------------------|
A|---------------------------|---------------------------|
E|---------------------------|---------------------------|                
                                                                                   


  02:00 

e|------ ------ ------ ------|------ ------ ------ ------|
B|---------------------------|---------------------------|
G|---------------------------|---------------------------|
D|---------------------------|---------------------------|
A|9-----11--11--9---9-11--11-|9---9-11--11--9---9-11-----|
E|7------7---7--7---7--7---7-|7---7--7---7--7---7--7-----|                 
  Hi            Hi         Hi          with music      on.                         
                                         the                                           
e|------ ------ ------ ------|------ ------ ------ ------|
B|---------------------------|---------------------------|
G|-----------------------6-7-|8--~-----------------------|
D|9--------------------------|-------------------------9-|
A|---------------------------|---------------------------|
E|---------------------------|---------------------------|





e|------ ------ ------ ------|------ ------ ------ ------|
B|---------------------------|---------------------------|
G|---------------------------|---------------------------|
D|---------------------------|---------------------------|
A|2---2--4---4--2------4---4-|2------4---4--2------4---2-/
E|0---0--0---0--0------0---0-|0------0---0--0------0---0-|
                                            Won't      bye 
                                                say 
e|------ ------ ------ ------|------ ------ ------ ------|
B|----8B9-------8B9--------8-|10B12--8B9-----------------|
G|9----------9------9--7-9---|-----------9---------------|
D|---------------------------|-------------------------9-|
A|---------------------------|---------------------------|
E|---------------------------|---------------------------|





e|------ ------ ------ ------|------ ------ ------ ------|
B|---------------------------|---------------------------|
G|---------------------------|---------------------------|
D|---------------------------|---------------------------|
A|9---9-11--11--9---9-11--11-|9---9-11--11--9---9-11---9-|
E|7---7--7---7--7---7--7---7-|7---7--7---7--7---7--7---7-|
  bye bye  bye  bye bye  bye  bye   'til the    is     gone.
                                            night
e|------ ------ ------ ------|------ ------ ------ ------|
B|---------------------------|---------------------------|
G|-----------------------6-7-|8--~-----------------------|
D|---------------------------|-------------------------9-|
A|---------------------------|---------------------------|
E|---------------------------|---------------------------|





e|------ ------ ------ ------|------ ------ ------ ------|
B|---------------------------|---------------------------|
G|---------------------------|---------------------------|
D|---------------------------|---------------------------|
A|2------4---4--2---2--4---4-|2---2--4---4--2------4---2-/
E|0------0---0--0---0--0---0-|0---0--0---0--0------0---0-|
                                         I'm gonna do  it 
e|------ ------ ------ ------|------ ------ ------ ------|
B|----8------8------8------8-|10B12--8B9-----------------|
G|9------7H9----7H9----7H9---|-----------9--~------------|
D|---------------------------|---------------------------|
A|---------------------------|---------------------------|
E|---------------------------|---------------------------|



  
                                                                           
e|------ ------ ------ ------|------ ------ ------ ------|
B|---------------------------|---------------------------|
G|---------------------------|---------------------------|        
D|---------------------------|---------------------------|
A|7---7--9---9--7------9---9-|7------9---9--7------7-----|
E|5---5--5---5--5------5---5-|5------5---5--5------5-----|
  to  you,      do  you    banana,        you'll give  up.
         gonna         sweet                never
e|------ ------ ------ ------|------ ------ ------ ------|
B|10B12------8--10B12------8-|10B12------8--10B12------8-|
G|---------------------------|---------------------------|
D|---------------------------|---------------------------|
A|---------------------------|---------------------------|
E|---------------------------|---------------------------|





e|------ ------ ------ ------|------ ------ ------ ------|
B|---------------------------|---------------------------|
G|---------------------------|---------------------------|
D|2---2--2-------------------|2---2--2------2---2--2-----|
A|2---2--2---4--2---2--2---4-|2---2--2---4--2---2--2---4-|
E|0---0--0---0--0---0--0---0-|0---0--0---0--0---0--0---0-|
                                         We're     get 
                                             gonna
e|------ ------ -B-R-- ------|-B-R-P ------ ------ -----B|
B10B12---8-----101210  8-----101210-8----8------8--10-1012
G|-----------9-------------9-|-------9------9------------|
D|---------------------------|---------------------------|
A|---------------------------|---------------------------|
E|---------------------------|---------------------------|

e|------ ------ ------ ------|------ ----0- ------ ------|
B|---------------------------|----3----------------------|
G|---------------------------|--------------3\2P0--------|
D|---------------------------|---------------------2---0-|
A|---------------------------|---------------------------|
E|---------------------------|---------------------------|




  B5     B6     B5 ...
e|------ ------ ------ ------|------ ------ ------ ------|
B|---------------------------|---------------------------|
G|---------------------------|---------------------------|
D|---------------------------|---------------------------|
A|9-----11--11--9---9-11--11-|9---9-11--11--9--9--11---9-|
E|7------7---7--7---7--7---7-|7---7--7---7--7--7---7---7-|
  Hi            Hi         Hi            We're  to get
                                            going
e|------ ------ ----10 ------|------ ----R- ------ ------|
B|---------------------12--10B121212-121211-10P8-8-10--8-|
G|---------------------------|---------------------------|
D|---------------------------|---------------------------|
A|---------------------------|---------------------------|
E|---------------------------|---------------------------|

e|------ ------ ------ ------|------ ------ ------ ------|
B|---------------------------|---------------------------|
G|---------------------------|---------------------------|
D|---------------------------|---------------------------|
A|2--------------------------|---------------------------|
E|---------------------------|---------------------------|




  C5     C6     C5 ...
e|------ ------ ------ ------|------ ------ ------ ------|
B|---------------------------|---------------------------|
G|---------------------------|---------------------------|
D|---------------------------|---------------------------|
A10-----12--12-10--10-12--12-10--10-12--12-10--10-12-----|
E|8------8---8--8---8--8---8-|8---8--8---8--8---8--8-----|
  Hi            Hi         Hi            We're  to get
                                            going  
e|------ ------ ------ ------|------ ------ ------ ------|
B|10------------10-------8-10|10-------8-10-10-------8-10|
G|---------------------9-----|-------9-------------------|
D|---------------------------|---------------------------|
A|---------------------------|---------------------------|
E|---------------------------|---------------------------|




  B5     B6     B5 ...
e|------ ------ ------ ------|------ ------ ------ ------|
B|---------------------------|---------------------------|
G|---------------------------|---------------------------|
D|---------------------------|---------------------------|
A|9---9-11--11--9---9-11--11-|9---9-11--11--9---9-11-----|
E|7---7--7---7--7---7--7---7-|7---7--7---7--7---7--7-----|
  Hi            Hi         Hi          in the          sun.
                                            midday  
e|-B-R-P ------ -B-R-P ------|-B---- ------ --B-R- ------|
B1012108-------1012108---8-101012121210--8--101210-8-----|
G|-------9-7-----------9-----|-------------------------9-|
D|---------------------------|---------------------------|
A|---------------------------|---------------------------|
E|---------------------------|---------------------------|


                             (speeded up tempo) 
                                     x x x  x x x  x x x             
                 
e|------ ------ ------ ------|------ ------ ------ ------|
B|---------------------------|---------------------------|
G|---------------------------|---------------------------|
D|---------------------------|---------------------------|
A|2---2--4---4--2---2--4---4-|2--------------------------|
E|0---0--0---0--0---0--0---0-|0--------------------------|
                               Oooh, babe
e|-----B R----- --B-R- ------|------ ------ -------------|
B|---101210--8--101210-8-----|---------------------------|
G|-------------------------9\|---------------------------|
D|---------------------------|---------------------------|
A|---------------------------|---------------------------|
E|---------------------------|---------------------------|



  02:36 

e|------ ------ ------ ------|------ ------ ------ ------|
B|---------------------------|---------------------------|
G|---------------------------|---------------------------|
D|---------------------------|---------------------------|
A|9-----11--11--9-----11--11-|9-----11----9-----9-11-----|
E|7------7---7--7------7---7-|7------7----7-----7--7-----|

e|------ ------ ------ 7-----|------ ------ ------ ------|
B|---------------------------|---------------------------|
G|8------8----------8--------|-----------8------8--------|
D|7------7----------7--------|-----------7------7--------|
A|9------9----------9--------|-----------9------9--------|
E|7------7----------7--------|-----------7------7--------|

e|------ ------ ------ ------|------ ------ ------ ------|
B|---------------------------|---------------------------|
G|---------------------------|---------------------------|
D|---------------------------|---------------------------|
A|---------------------------|---------------------------|
E|7------7---7--7---7--7---7-|7---7--7---7--7---7--7--\--|





e|------ ------ ------ ------|------ ------ ------ ------|
B|---------------------------|---------------------------|
G|---------------------------|---------------------------|
D|---------------------------|---------------------------|
A|2------4------2---2--4-----|2---2--4------2------------|
E|0------0------0---0--0-----|0---0--0------0------------|

e|------ ------ ------ 12----|------ ------ ------ ------|
B|------------------12-----12|---------------------------|
G|---------------------------|---------------------------|
D|---------------------------|---------------------------|
A|---------------------------|-------------------------2/|
E|---------------------------|-------------------------0/|

e|------ ------ ------ ------|------ ------ ------ ------|
B|---------------------------|---------------------------|
G|---------------------------|---------------------------|
D|---------------------------|---------------------------|
A|---------------------------|---------------------------|
E|0------0-------------------|-----------0--4---5--6---7-|     





e|------ ------ ------ ------|------ ------ ------ ------|
B|---------------------------|---------------------------|
G|---------------------------|---------------------------|
D|---------------------------|---------------------------|
A|9-----11------9---9-11-----|9---9-11------9------------|
E|7------7------7---7--7-----|7---7--7------7------------|

e|------ ------ ------ ------|------ ------ ------ ------|
B|---------------------------|---------------------------|
G|----8-------------8--------|----8-------------9------9-|
D|-------7-------------7-----|-------7----------9------9-|
A|9----------9-------------9-|-----------9---------------|
E|7--------------------------|---------------------------|

e|------ ------ ------ ------|------ ------ ------ ------|
B|---------------------------|---------------------------|
G|---------------------------|---------------------------|
D|---------------------------|---------------------------|
A|---------------------------|---------------------------|
E|7---7--7---7--7---7--7---7-|7---7--7---7--7---7\-0-----|





e|------ ------ ------ ------|------ ------ ------ ------|
B|---------------------------|---------------------------|
G|---------------------------|---------------------------|
D|---------------------------|---------------------------|
A|2---2--4------2---2--4-----|2------4------2------4-----|
E|0---0--0------0---0--0-----|0------0------0------0-----|

e|------ ------ ------ ------|------ ------ ------ ------|
B|---------------------------|---------------------------|
G|---------------------------|---------------------------|
D|--------------2------------|---------------------------|
A|---------------------------|---------------------------|
E|-------------------------0-|0------------------------0/|





e|------ ------ ------ ------|------ ------ ------ ------|
B|---------------------------|---------------------------|
G|---------------------------|---------------------------|
D|---------------------------|---------------------------|
A|7------9---7--7------9-----|7------9---9--7------------|
E|5------5---5--5------5-----|5------5---5--5------------|

e|------ ------ ------ ------|------ ------ ------ ------|
B|---------------------------|---------------------------|
G|---------------------------|---------------------------|
D|---------------------------|---------------------------|
A|---------------------------|---------------------------|
E|5---5------5--5---5------5-|5---5------5--5---5------5-|

e|12---- ------ ------ ------|------ ------ ------ ------|
B|14-------------------------|---------------------------|
G|14-------------------------|---------------------------|
D|---------------------------|---------------------------|
A|---------------------------|---------------------------|
E|---------------------------|---------------------------|





e|------ ------ ------ ------|------ ------ ------ ------|
B|---------------------------|---------------------------|
G|---------------------------|---------------------------|
D|---------------------------|---------------------------|
A|2---2--4------2------4-----|2------4------2------4-----|
E|0---0--0------0------0-----|0------0------0------0-----|    

e|------ ------ ----0- ------|------ ------ ----0- ------|
B|------------------0--------|------------------0--------|
G|------------0H1------------|------------0H1------------|
D|---------------------------|---------------------------|
A|---------------------------|---------------------------|
E|0------0-------------------|---------------------------|

e|12---- ------ ------ ------|------ ------ ------ ------|
B|12-------------------------|---------------------------|
G|13-------------------------|---------------------------|
D|---------------------------|---------------------------|
A|---------------------------|---------------------------|
E|---------------------------|---------------------------|



  02:52

e|------ ------ ------ ------|------ ------ ------ ------|
B|---------------------------|---------------------------|
G|---------------------------|---------------------------|
D|---------------------------|---------------------------|
A|9-----11------9-----11-----|9-----11------9-----11-----|
E|7------7------7------7-----|7------7------7------7-----|
  Hi            Hi         Hi
e|14---- ------ 14---- ----14|------ 14---- ----14 ------|
B|16------------16---------16|-------16---------16-------|
G|16------------16---------16|-------16---------16-------|
D|---------------------------|---------------------------|
A|---------------------------|---------------------------|
E|---------------------------|---------------------------|





e|------ ------ ------ ------|------ ------ ------ ------|
B|---------------------------|---------------------------|
G|---------------------------|---------------------------|
D|---------------------------|---------------------------|
A10-----12-----10-----12-----10-----12-----10-----12-----|
E|8------8------8------8-----|8------8------8------8-----|
  Hi            Hi         Hi
e|15---- ----15 ------ 15----|----15 ------ 15---- ----14|
B|17---------17--------17----|----17--------17---------16|
G|15---------15--------15----|----15--------15---------16|
D|---------------------------|---------------------------|
A|---------------------------|---------------------------|
E|---------------------------|---------------------------|





e|------ ------ ------ ------|------ ------ ------ ------|
B|---------------------------|---------------------------|
G|---------------------------|---------------------------|
D|---------------------------|---------------------------|
A|9-----11------9-----11-----|9--------------------------|
E|7------7------7------7-----|7--------------------------|
  Hi            Hi         Hi     in the    midday     sun
e|------ 14---- ----14 ------|14---- ------ ------ ------|
B|-------16---------16-------|16-------------------------|
G|-------16---------16-------|16-------------------------|
D|---------------------------|---------------------------|
A|---------------------------|---------------------------|
E|---------------------------|---------------------------|

e|------ ------ ------ ----7-/19\--- ------ ------ ------|
B|---------------------------|---------------------------|
G#---------------------------|---------------------------|
E|---------------------------|---------------------------|
B|---------------------------|---------------------------|
E|---------------------------|---------------------------|

e|------ ------ ------ ------|------ ------ ------ ------|
B|---------------------------|---------------------------|
G#-------------------------4-/16\------------------------|
E|---------------------------|---------------------------|
B|---------------------------|---------------------------|
E|---------------------------|---------------------------|



                                        (.

e|------ ------ ------ ------|------ ------ ------ ------|
B|---------------------------|---------------------------|
G|---------------------------|---------------------------|
D|----2---------0------------|---------------------------|
A|---------------------4-----|2-P-0----------------------|
E|0--------------------------|-------3---0---------------|

e|------ ------ ------ ------|------ ------ ------ ------|
B|---------------------------|---------------------------|
G|---------------------------|---------------------------|
D|----6---------4------------|---------------------------|
A|---------------------7-----|5-P-4----------------------|
E|---------------------------|-------7---4---------------|

e|------ ------ ------ ------|------ ------ ------ ------|
B|----9---------7------------|-------8-/-9-------------\-|
G|----9---------7------9-----|7------8-/-9--~----------\-|
D|--------------------11-----|9--------------------------|
A|---------------------------|---------------------------|
E|---------------------------|---------------------------|





e|------ ------ ------ ------|------ ------ 0----- ------|
B|---------------------------|--------------0------------|
G|---------------------------|--------------1------------|
D|---------------------------|--------------2------------|
A|---------------------------|--------------2------------|
E|---------------------------|--------------0------------|

e|------ ------ ------ ------|------ ------ 2----- ------|
B|---------------------------|--------------3------------|
G|---------------------------|--------------4------------|
D|---------------------------|---------------------------|
A|---------------------------|---------------------------|
E|---------------------------|---------------------------|





  


        B  Bend
        R  Release
        /  Slide up
        \  Slide down
        H  Hammer-on
        P  Pull-off
        ~  Vibrato
        +  Harmonic
        x  Mute note
        .  Play note like a dot in standard notation
        ^  Ties two notes together
        (. Pause




      
comments
print report bad tab
I want to post or [tab]
guest
You may want to rate the tab now too:
select rating
Please do not post tabs as comments. Select "correction" instead!