Oops, an error
Loading. Please wait.

Mrs Vanderbilt Bass Tab

8,495 views 30 this week
no commentswrite comment
1 2 3 4 5
excellent!
x 3
Autoscroll
+/-
esc
set tempo
stop
Contributor
WARNING: You are trying to view
                                    content from Ultimate-Guitar.com
                                    in an unauthorized application,
                                    which is prohibited.

                                    Please use an official Ultimate
                                    Guitar Tabs application for iPhone,
                                    iPad or Android to access legitimate
                                    chords, guitar, bass, and drum tabs
                                    from Ultimate-Guitar.com database.

                                    Type "ultimate guitar tabs" in Apple
                                    App Store's or Android Market's
                                    search to find the application.
        ------------------------------------------------------

                   PAUL MCCARTNEY - MRS. VANDERBILT
                            Paul McCartney
             From BAND ON THE RUN album. Released on 1973.

        ------------------------------------------------------






     INTRO


  G|---------------------------------|---------------------------------|
  D|---------2-------------------0---|-2---------------2---2-----------|
  A|-0---------------0---0---3-------|---------3---2-----------3---2---|
  E|---------------------------------|---------------------------------|





  G|-------------------------0-------|-2---------------2---2-------0---|
  D|-2---------------2---2-------2---|---------2---------------2-------|
  A|---------3---2-------------------|-------------3-------------------|
  E|---------------------------------|---------------------------------|





     VERSE
     00:08

  G|-2---------------2---2-----------|---------------------------------|
  D|---------2-------------------0---|-2---------------2---2-----------|
  A|-------------3-----------3-------|---------3---2-----------3---2---|
  E|---------------------------------|---------------------------------|





  G|---------------------------------|-2---2-----------2---2-----------|
  D|-2---------------2---2-----------|---------2---------------2-------|
  A|---------3---2-----------3---2---|-------------3-------------------|
  E|---------------------------------|---------------------------------|





     CHORUS
     00:16

  G|-2---2-----------2---2-----------|---------------------------------|
  D|---------2-------------------0---|-2---2-----------2---2-----------|
  A|-------------3-----------3-------|---------3---2-----------3---2---|
  E|---------------------------------|---------------------------------|





  G|---------------------------------|-2---2-----------2---2-----------|
  D|-2---2-----------2---2-----------|---------2---------------2-------|
  A|---------3---2-----------3---2---|-------------3---------------3---|
  E|---------------------------------|---------------------------------|





  G|-2---2-----------2---2-----------|---------------------------------|
  D|---------2-------------------0---|-2---2-----------2---2-----------|
  A|-------------3-----------3-------|---------3---2-----------3---2---|
  E|---------------------------------|---------------------------------|





  G|---------------------------------|-----------------2---2-------2---|
  D|-2---2-----------2---2-----------|---------2---------------2-------|
  A|---------3---2-----------3---2---|-0-------------------------------|
  E|---------------------------------|---------------------------------|





     VERSE
     00:31

  G|---------------------------------|---------------------------------|
  D|---------------------------------|-2---------------2---2-----------|
  A|-0-------0-------0-------3-------|---------3---2-----------3---2---|
  E|---------------------------------|---------------------------------|





  G|---------------------------------|-2---2-----------2---2-----------|
  D|-2---------------2---2-----------|---------2---------------2-------|
  A|---------3---2-----------3---2---|-------------3---------------3---|
  E|---------------------------------|---------------------------------|





  G|---------------------------------|-----------------2---2-----------|
  D|-2---------------2---2-----------|---------2---------------2-------|
  A|---------3---2-----------3---2---|-0---------------------------3---|
  E|---------------------------------|---------------------------------|





  G|-2---2-----------2---2-----------|
  D|---------2---------------2-------|
  A|-------------3---------------3---|
  E|---------------------------------|





     VERSE
     00:44

  G|-2-\-----------------------------|---------------------------------|
  D|---------------------------------|-2---2-----------2---2-----------|
  A|---------0-------0-------3-------|---------3---2-----------3---2---|
  E|---------------------------------|---------------------------------|





  G|---------------------------------|-2---2-----------2---2-----------|
  D|-2---2-----------2---2-----------|---------2---------------2-------|
  A|---------3---2-----------3---2---|-------------3---------------3---|
  E|---------------------------------|---------------------------------|





  G|---------------------------------|-----------------2---2---2---2---|
  D|-2---------------2---2-----------|---------2-----------------------|
  A|---------3---2-----------3---2---|-0-------------------------------|
  E|---------------------------------|---------------------------------|





  G|-----2---2---2---2---0-----------|
  D|-------------------------4---2---|
  A|---------------------------------|
  E|---------------------------------|





     BRIDGE
     00:57

  G|---------------------------------|---------------------------------|
  D|-0-------0-------0-------0-------|-0---0-------0---0---0-----------|
  A|-----------------------------0---|-----------------------------0---|
  E|---------------------------------|---------------------------------|





  G|---------------------------------|---------------------------------|
  D|---------------------------------|-5---------------5---3---2-------|
  A|-----------------------------5---|-----------------------------5---|
  E|-3---3-------3---3---3-----------|---------------------------------|





  G|---------------------------------|---------------------------------|
  D|---------------------------------|-----------------------------0---|
  A|-3---3-----------3---3-----------|-3---3-----------3---3---3-------|
  E|---------4---3-----------3-------|---------4---3-------------------|





  G|---------------------------------|-----9---9---9---9---9---9---9---|
  D|-2---2-----------2---2-----------|---------------------------------|
  A|---------3---2-----------3---2---|-7-------------------------------|
  E|---------------------------------|---------------------------------|





     SAX INTERLUDE
     01:13

  G|---------------------------------|---------------------------------|
  D|-0---------------0---0-----------|-0---0-----------0---0-----------|
  A|---------0---------------0-------|---------0---------------0-------|
  E|---------------------------------|---------------------------------|





  G|---------------------------------|---------------------------------|
  D|-------------2---------------2---|-------------2-------------------|
  A|-0---0---3-------0---0---3-------|-0---0---3-------0---------------|
  E|---------------------------------|---------------------------------|





     PRE-CHORUS
     01:21

  G|---------------------------------|---------------------------------|
  D|-2---------------2---2-----------|-------------2-------------------|
  A|---------2---------------2---2---|-0-------3-------0---------------|
  E|---------------------------------|---------------------------------|





  G|---------------------------------|---------------------------------|
  D|-2---------------2---2-----------|-------------2-------------------|
  A|---------2---2-----------2---2---|-0-------3-------0---------------|
  E|---------------------------------|---------------------------------|





  G|---------------------------------|---------------------------------|
  D|-2---------------2---2-----------|-0-----------2-------------------|
  A|---------2---------------2---2---|-------------------------0-------|
  E|---------------------------------|---------------------------------|





  G|---------------------------------|---------------------------------|
  D|---------------------------------|---------------------------------|
  A|---------------------------------|-----------------------/-17-\----|
  E|---------------------------------|---------------------------------|





     CHORUS
     01:36

  G|-----------------2---2-----------|---------------------------------|
  D|---------2-------------------0---|-2---------------2---2-----------|
  A|-0-----------------------3-------|---------3---2-----------3---2---|
  E|---------------------------------|---------------------------------|





  G|---------------------------------|-2---2-----------2---2-----------|
  D|-2---2-----------2---2-----------|---------2---------------2-------|
  A|---------3---2-----------3---2---|-------------3---------------3---|
  E|---------------------------------|---------------------------------|





  G|-2---2-----------2-\-------------|---------------------------------|
  D|---------2-----------------------|-2---2-----------2---------------|
  A|-------------3-----------3-------|---------3---2-----------2-------|
  E|---------------------------------|---------------------------------|





  G|---------------------------------|-----------------2---2-----------|
  D|-2---2-----------2---2-----------|---------2---------------2-------|
  A|---------3---2-----------3---2---|-0---------------------------3---|
  E|---------------------------------|---------------------------------|





  G|-2---------------2---0-----------|
  D|---------2---------------4---2---|
  A|---------------------------------|
  E|---------------------------------|





     GUITAR SOLO
     01:53

  G|---------------------------------|---------------------------------|
  D|-0-------------------------------|---------------------------------|
  A|---------------------------------|-3-------------------------------|
  E|---------------------------------|---------------------------------|





  G|---------------------------------|---------------------------------|
  D|---------------------------------|---------------------------------|
  A|-2-------------------3-------2---|-0---------------0-------2-------|
  E|---------------------------------|-------------3-------------------|





  G|---------------------------------|---------------------------------|
  D|---------------------------------|-------------------------0---1---|
  A|-3-------------------------------|---------------------3-----------|
  E|---------------------------------|---------------------------------|





  G|-----------------7---7---7---7---|-7---7---7---7---7---7---7-\-----|
  D|-2-------------------------------|---------------------------------|
  A|---------------------------------|---------------------------------|
  E|---------------------------------|---------------------------------|





  G|---------------------------------|---------------------------------|
  D|-0---------------0---0-----------|-0---------------0---0-----------|
  A|---------0---------------0-------|---------0---------------0-------|
  E|---------------------------------|---------------------------------|





  G|-2---------------2---2-----------|-2---2-----------2-\-------------|
  D|---------2---------------2-------|---------2-----------------------|
  A|---------------------------------|---------------------------------|
  E|---------------------------------|---------------------------------|





     PRE-CHORUS
     02:16

  G|---------------------------------|---------------------------------|
  D|-2---------------2---2-----------|-------------2-------------------|
  A|---------2---------------2---2---|-0-------3-------0---------------|
  E|---------------------------------|---------------------------------|





  G|---------------------------------|---------------------------------|
  D|-2---2-----------2---2-----------|-------------2-------------------|
  A|---------2---2-----------3---2---|-0---0---3-------0---------------|
  E|---------------------------------|---------------------------------|





  G|---------------------------------|---------------------------------|
  D|-2---------------2---2-----------|-0-----------2-------------------|
  A|---------2---------------2---2---|-------------------------0-------|
  E|---------------------------------|---------------------------------|





  G|---------------------------------|---------------------------------|
  D|---------------------------------|---------------------------------|
  A|---------------------------------|---------------------------------|
  E|---------------------------------|---------------------------------|





     CHORUS
     02:31 ....




     VERSE
     02:46 ....



  G|---------------------------------|---------------------------------|
  D|---------------------------------|---------------------------------|
  A|---------------------------------|---------------------0---0---0---|
  E|---------------------------------|---------------------------------|





     BRIDGE
     03:08

  G|---------------------------------|---------------------------------|
  D|-0-----------0---0---0---0-------|-0-----------0---0---2---0-------|
  A|-----------------------------0---|---------------------------------|
  E|---------------------------------|---------------------------------|





  G|---------------------------------|---------------------------------|
  D|---------------------------------|---------------------------------|
  A|---------------------------------|---------------------0---2-------|
  E|-3---3-------3---3---3-----------|-3---3-----------3---------------|





  G|---------------------------------|---------------------------------|
  D|---------------------------------|-----------------------------0---|
  A|-3---3-----------3---3-----------|-3---3-----------3---3---3-------|
  E|---------3---3-----------3-------|---------3-----------------------|





  G|---------------------------------|-7---7---7---7---7---7--/-14-\---|
  D|-2---2-----------2---2-----------|---------------------------------|
  A|---------3---2-----------3---2---|---------------------------------|
  E|---------------------------------|---------------------------------|





     SAX INTERLUDE
     03:24

  G|---------------------------------|-----------------------------0---|
  D|-0---------------0---0-----------|-0---0-----------0---0---2-------|
  A|---------0---------------0---0---|---------0-----------------------|
  E|---------------------------------|---------------------------------|





  G|-2---2-----------2---2-----------|-2---2-------0---2---------------|
  D|---------2---------------2-------|---------2-----------------------|
  A|-------------3-------------------|-----------------------/-17-\----|
  E|---------------------------------|---------------------------------|





     PRE-CHORUS
     03:32 ....



  G|---------------------------------|---------------------------------|
  D|---------------------------------|---------------------------------|
  A|---------------------------------|-------------0-------17\-----17\-|
  E|---------------------------------|---------------------------------|





     OUTRO-CHORUS
     03:47

  G|---------------------------------|---------------------------------|
  D|---------2-------------------0---|-2---------------2---2-----------|
  A|-0---------------0---0---3-------|---------3---2-----------3---2---|
  E|---------------------------------|---------------------------------|





  G|---------------------------------|-2---2-----------2---2-----------|
  D|-2---------------2---2-----------|---------2---------------2-------|
  A|---------3---2-----------3---2---|-------------3---------------3---|
  E|---------------------------------|---------------------------------|





  G|-2---------------2---2-----------|---------------------------------|
  D|---------2-------------------0---|-2---------------2---2-----------|
  A|-------------3-----------3-------|---------3---2-----------3---2---|
  E|---------------------------------|---------------------------------|





  G|---------------------------------|-----------------2---------------|
  D|-2---2-----------2---2-----------|---------2---------------2-------|
  A|---------3---2-----------3---2---|-0-------------------------------|
  E|---------------------------------|---------------------------------|





  G|-2---------------2-\-------------|---------------------------------|
  D|---------2-----------------------|-2---------------2---------------|
  A|-------------------------3-------|---------2---------------3---2---|
  E|---------------------------------|---------------------------------|





  G|-----------------------------0---|-2---------------2---2-----------|
  D|-2---2-----------2---2---4-------|---------2---------------2-------|
  A|---------3---2-------------------|-----------------------------3---|
  E|---------------------------------|---------------------------------|





  G|---------------------------------|---------------------------------|
  D|-------------2---------------2---|-----------------2---2-----------|
  A|-0---0---3-------0---0---3-------|---------3---2-----------3---2---|
  E|---------------------------------|---------------------------------|





  G|---------------------------------|---------------------------------|
  D|-2---2-----------2---2-----------|-------------2---------------2---|
  A|---------3---2-----------3---2---|-0---0---3-------0---0---3-------|
  E|---------------------------------|---------------------------------|





  G|---------------------------------|---------------------------------|
  D|-------------2---------------2---|-2---2-----------2---2-----------|
  A|-0---0---3-------0---0---3-------|---------3---2-----------3---2---|
  E|---------------------------------|---------------------------------|





  G|---------------------------------|-2---0---------------------------|
  D|-2---2-----------2---2-----------|---------4---2---1---0-----------|
  A|---------3---2-----------3---2---|-------------------------4---2---|
  E|---------------------------------|---------------------------------|





  G|---------------------------------|---------------------------------|
  D|-------------2---------------2---|-2---2-----------2---2-----------|
  A|-0-------3-------0---0---3-------|---------3---2-----------3---2---|
  E|---------------------------------|---------------------------------|





  G|-----------------------------0---|-2---2-----------2---2-----------|
  D|-2---2-----------2---2---4-------|---------2---------------2-------|
  A|---------3---2-------------------|-------------3---------------3---|
  E|---------------------------------|---------------------------------|





  G|-2---2-----------2---2---0-------|---------------------------------|
  D|---------2-------------------4---|-2---1---0-----------------------|
  A|-------------3-------------------|-------------4---2---0-----------|
  E|---------------------------------|-------------------------4---2---|





  G|---------------------------------|---------------------------------|
  D|---------------------------------|---------------------------------|
  A|---------------------------------|---------------------------------|
  E|-0-------0-------0-------0-------|---------------------------------| ....
comments
We did not receive enough feedback on this tab! Please rate:
print report bad tab
1 2 3 4 5
I want to post or [tab]
guest
You may want to rate the tab now too:
select rating
Please do not post tabs as comments. Select "correction" instead!