Oops, an error
Loading. Please wait.

50 Ways To Leave Your Lover Bass Tab

ver1
ver1

Whole song

Interactive

More versions @911Tabs.com
6,716 views 42 this week
1 commentread comment
1 2 3 4 5
accurate
x 4
Autoscroll
+/-
esc
set tempo
stop
Difficulty
novice
WARNING: You are trying to view
                                    content from Ultimate-Guitar.com
                                    in an unauthorized application,
                                    which is prohibited.

                                    Please use an official Ultimate
                                    Guitar Tabs application for iPhone,
                                    iPad or Android to access legitimate
                                    chords, guitar, bass, and drum tabs
                                    from Ultimate-Guitar.com database.

                                    Type "ultimate guitar tabs" in Apple
                                    App Store's or Android Market's
                                    search to find the application.
You probably see this a lot but: my first tab, so, don't be mad if it's wrong, somewhere.

Tabbed By: AugustJazz


G|--------5-4/9-8-11-4-----------------------------| 
D|--5/12-----------------2-1----------2/7--2-------| 
A|------------------------------3-2----------------| 
E|-------------------------------------------------| 

G|--------5-4/9-8-11-4------------------------------------| 
D|--5/12-----------------2-1----------2/7--2----2/7--2----| 
A|------------------------------3-2-----------------------| 
E|--------------------------------------------------------| 

G|-----------3333------5555-----------------------------| 
D|----5555-----------------------555--------------------| 
A|------------------------------------------------------| 
E|------------------------------------------------------| 

G|---------------3333------5555----------------------------| 
D|--345-5555-----------------------555---------------------| 
A|---------------------------------------------------------| 
E|---------------------------------------------------------| 

G|---------------3333------5555----------------------------| 
D|--345-5555-----------------------555---------------------| 
A|---------------------------------------------------------| 
E|---------------------------------------------------------| 

G|---------------3333--------------------------------------| 
D|--345-5555-------------101010/5--------------------------| <These are 10's
A|---------------------------------------------------------| 
E|---------------------------------------------------------| 

G|--------5-4/9-8-11-4-----------------------------| 
D|--5/12-----------------2-1----------2/7--2-------| 
A|------------------------------3-2----------------| 
E|-------------------------------------------------| 

G|--------5-4/9-8-11-4------------------------------------| 
D|--5/12-----------------2-1----------2/7--2----2/7--2----| 
A|------------------------------3-2-----------------------| 
E|--------------------------------------------------------| 

G|-----------3333------5555-----------------------------| 
D|----5555-----------------------555--------------------| 
A|------------------------------------------------------| 
E|------------------------------------------------------| 

G|---------------3333------5555----------------------------| 
D|--345-5555-----------------------555---------------------| 
A|---------------------------------------------------------| 
E|---------------------------------------------------------| 

G|---------------3333------5555----------------------------| 
D|--345-5555-----------------------555---------------------| 
A|---------------------------------------------------------| 
E|---------------------------------------------------------| 

G|---------------3333--------------------------------------| 
D|--345-5555-------------101010/5--------------------------| <These are 10's
A|---------------------------------------------------------| 
E|---------------------------------------------------------| 
comments
print report bad tab
1 comment total.
0 reply
GentlemenJack wrote on July 11 2014, 03:02 am

Pretty sure it goes down to the 'A' on that run down but besides that every thing seems fine, good first tab.

I
I
V
G|--------5-4/9-8-11-4------------------------------------|
D|--5/12-----------------2-0----------2/7--2----2/7--2----|
A|------------------------------3-2-----------------------|
E|--------------------------------------------------------|

I think that's it.

I want to post or [tab]
guest
You may want to rate the tab now too:
select rating
Please do not post tabs as comments. Select "correction" instead!