Oops, an error
Loading. Please wait.

Father And Daughter Tab

ver1
ver1

Intro

Whole song

More versions @911Tabs.com
20,527 views 19 this week
2 commentsread comments
1 2 3 4 5
excellent!
x 8
Autoscroll
+/-
esc
set tempo
stop
Contributor
Hey! There's an official Ultimate Guitar app which is ideal
for learning songs when you're away from computer. Get the app
WARNING: You are trying to view
                                    content from Ultimate-Guitar.com
                                    in an unauthorized application,
                                    which is prohibited.

                                    Please use an official Ultimate
                                    Guitar Tabs application for iPhone,
                                    iPad or Android to access legitimate
                                    chords, guitar, bass, and drum tabs
                                    from Ultimate-Guitar.com database.

                                    Type "ultimate guitar tabs" in Apple
                                    App Store's or Android Market's
                                    search to find the application.
Father and Daughter
Paul Simon - Suprise

 C  F  C/E  Dm7  D7  G  Am C/D  Csus4
-0--1---0----1---0---3--0---0----3-|
-1--1---1----3---1---0--1---1----1-|
-0--2---0----2---2---0--2---0----0-|
-2--3---2----0---0---0--2---2----3-|
-3--3---3----X---X---2--0---0----X-|
-3--1---0----X---X---3--X---X----X-|

Capo 4th Fret

Intro:

E||-5-3p0------------------------------|
B||-------3-5-3p1-----------------3-5--|
G||---------------2-5-2p0-----2-5------|
D||-----------------------2-5----------|
A||------------------------------------|
E||------------------------------------|

E||-5-3p0---------------------------------|
B||-------3-5-3p1-----------------3-1-----|
G||---------------2-5-2p0-----2-5-------0-|
D||-----------------------2h5---------0---|
A||---------------------------------------|
E||---------------------------------------|

Strum a C chord

Verse 1

        F   C/E          Dm7         G   C
If you leap awake in the mirror of a bad dream
          D7            C          C/B            G         Am
And for a fraction of a second you can't remember where you are
               F  C/E     Dm7         G      C
Just open your window and follow your memory upstream
       D7            C                 C/B           G       Am
To the meadow in the mountain where we counted every falling star
            F                C/E          Dm7         G   C
I believe a light that shines on you will shine on you forever
             D7            C                 C/B
And though I can’t guarantee there’s nothing scary
       G          Am
hiding under your bed
          F     C/E          Dm7           G        C
I'm gonna stand guard like a postcard of a Golden Retriever
          D7            C               C/B        G        Am
And never leave ‘til I leave you with a sweet dream in your bed

(Fill 1)
--------------------0-1-----|
------0-h2-0----1-3-----3-1-|
--2-3--------3--------------|
----------------------------|
----------------------------|

Chorus
C                     F
  I'm gonna watch you shine
                C
Gonna watch you grow
              F
Gonna paint a sign
                 C
So you'll always know
          F                  C
As long as one and one is two-ooo
F             C          C/D
  There could never be a father
              Am                 G      Am
Who loved his daughter more than I love you


Verse 2

C
 Trust your intuition
 It’s just like goin’ fishin’
    D7            C   C/B       G     Am
You cast your line and hope you get a bite
                     F    C/E    Dm7  G
But you don’t need to waste your time
C
 Worryin’ about the market place
 Try to help the human race

D7          C      C/B     G        Am
 Struggling to survive its harshest night

(Fill 1)
--------------------0-1-----|
------0-h2-0----1-3-----3-1-|
--2-3--------3--------------|
----------------------------|
----------------------------|

Chorus
C                     F
  I'm gonna watch you shine
                C
Gonna watch you grow
              F
Gonna paint a sign
                 C
So you'll always know
          F                  C
As long as one and one is two-ooo
F             C          C/D
  There could never be a father
              Am                 G      Am
Who loved his daughter more than I love you

(Interlude)
F G |Am|F G |Am|F G |Am|F G |Am|F G |

C                     F
  I'm gonna watch you shine
                C
Gonna watch you grow
              F
Gonna paint a sign
                 C
So you'll always know
          F                  C
As long as one and one is two-ooo
F             C          C/D
  There could never be a father
              Am                 G      Am
Who loved his daughter more than I love you

C Csus4 c Csus4|C Csus4 c Csus4|

Then finish with intro X2
comments
print report bad tab
2 comments total.
0 reply
GMCampey wrote on June 22 2013, 06:16 pm

A few notes out in the intro - pretty sure it should read like this:

Intro:

E||-5-3p0------------------------------|
B||-------3-5-3p1-----------------3-5--|
G||---------------2-5-2p0-----2-5------|
D||-----------------------2-5----------|
A||------------------------------------|
E||------------------------------------|

E||-5-3p0---------------------------------|
B||-------3-5-3p1-----------------3-1-----|
G||---------------2-5-2p0-----2-5-------0-|
D||-----------------------2h5---------0---|
A||---------------------------------------|
E||---------------------------------------|

+1 reply
TaylorMicha wrote on July 10 2013, 11:08 am

Sounds nice, listening again now, that does sound more like it.
Considering it's been over 6 years since I posted this tab, a little correction now won't hurt.

:)

I want to post or [tab]
guest
You may want to rate the tab now too:
select rating
Please do not post tabs as comments. Select "correction" instead!