Oops, an error
Loading. Please wait.

Homeward Bound Tab

ver2
ver2

Whole song

More versions @911Tabs.com
2,594 views 27 this week
no commentswrite comment
1 2 3 4 5
excellent!
x 1
Autoscroll
+/-
esc
set tempo
stop
Difficulty
intermediate
WARNING: You are trying to view
                                    content from Ultimate-Guitar.com
                                    in an unauthorized application,
                                    which is prohibited.

                                    Please use an official Ultimate
                                    Guitar Tabs application for iPhone,
                                    iPad or Android to access legitimate
                                    chords, guitar, bass, and drum tabs
                                    from Ultimate-Guitar.com database.

                                    Type "ultimate guitar tabs" in Apple
                                    App Store's or Android Market's
                                    search to find the application.
Homeward Bound - Paul Simon

Capo 3rd Fret

I have tabbed this from watching a youtuber play his interpretation of the song.
I feel its accurate and fun to play and now I have learnt it from my tab I made based on 
his performance and tutorial, I will share it with the UG community.

Heres his cover - http://www.youtube.com/watch?v=0PTW61qD_ys

*******
 Intro
*******

 | 1 + 2 + 3 + 4 + | 1 + 2 + 3 + 4 + |

e|-----------------|-----------------|
B|-0---0h1p0-1-----|-----------------|
G|-0---0h2p0-2-0-0-|-0---0-----------|
D|-----0-----3-2---|-0h2-0-----------|
A|---------------3-|-----------------|
E|-----------------|-----------------|

*******
 Verse
*******

 | 1 + 2 + 3 + 4 + | 1 + 2 + 3 + 4 + | 1 + 2 + 3 + 4 + | 1 + 2 + 3 + 4 + |

e|-----------------|-----------------|-----------------|-----------------|
B|-----------------|-----------------|-----------------|-----------------|
G|-----0-------0---|-----0-------0---|-----------------|-----------------|
D|-----------------|-----------------|-----4-------4---|-----4-------4---|
A|-----------------|-----------------|-----------------|-----------------|
E|-3-------3-------|-3-------3-------|-2-------2-------|-2-------2-------|

 | 1 + 2 + 3 + 4 + | 1 + 2 + 3 + 4 + | 1 + 2 + 3 + 4 + | 1 + 2 + 3 + 4 + |

e|-----------------|-----------------|-----------------|-----------------|
B|-----------------|-----------------|-----------------|-----------------|
G|-----------------|-----------------|-----------------|-----------------|
D|-----3-------3---|-----3-------3---|-----2-------2---|-----2h3-2p0-----|
A|-----------------|-----------------|-----------------|-------------3-2-|
E|-1-------1-------|-1-------1-------|-0-------0-------|-0-------0-------|

 | 1 + 2 + 3 + 4 + | 1 + 2 + 3 + 4 + | 1 + 2 + 3 + 4 + | 1 + 2 + 3 + 4 + |

e|-0---------------|-----------------|-1---------------|-----------------|
B|-1---------1-----|-----------1-----|-1---------1-----|-----------1-----|
G|-2-----2-------2-|-------2---------|-2-----2-------2-|-------2-------2-|
D|-----2-------2---|-----2-----------|-----3-------3---|-----3-------3---|
A|-0-------0-------|-0-------0-------|-----------------|-----------------|
E|-----------------|-------------3---|-1-------1-------|-1-------1-------|

 | 1 + 2 + 3 + 4 + | 1 + 2 + 3 + 4 + | 1 + 2 + 3 + 4 + | 1 + 2 + 3 + 4 + |

e|-3---------------|-----------------|-3---------------|-----------------|
B|-0---------0-----|-----------0-----|-0---------0-----|-----------0-----|
G|-0-----0-------0-|-------0-------0-|-0-----0-------0-|-------0-------0-|
D|-----0-------0---|-----0-------0---|-----0-------0---|-----0-------0---|
A|-----------------|-----------------|---------0-------|-2---------------|
E|-3-------3-------|-3-------3-------|-3---------------|---------3-------|


******
CHORUS
******


 | 1 + 2 + 3 + 4 + | 1 + 2 + 3 + 4 + | 1 + 2 + 3 + 4 + | 1 + 2 + 3 + 4 + |

e|-3---------------|-----------------|-0---------------|-----------------|
B|-0---------0-----|-----0---1---3---|-----------0-----|-----1---0-------|
G|-0-----0-------0-|-----------------|-------0-------0-|-------------2---|
D|-----0-------0---|-----------------|-----2-------2---|-----2---0-------|
A|-----------------|---------0---2---|-3---------------|-3-----------3---|
E|-3-------3-------|-3---3-----------|---------3-------|-----------------|


 | 1 + 2 + 3 + 4 + | 1 + 2 + 3 + 4 + | 1 + 2 + 3 + 4 + | 1 + 2 + 3 + 4 + |

e|-3---------------|-----------------|-0---------------|-----------------|
B|-0---------0-----|-----0---1---3---|-----------0-----|-----1---0-------|
G|-0-----0-------0-|-----------------|-------0-------0-|-------------2---|
D|-----0-------0---|-----------------|-----2-------2---|-----2---0-------|
A|-----------------|---------0---2---|-3---------------|-3-----------3---|
E|-3-------3-------|-3---3-----------|---------3-------|-----------------|

 | 1 + 2 + 3 + 4 + | 1 + 2 + 3 + 4 + | 1 + 2 + 3 + 4 + | 1 + 2 + 3 + 4 + |

e|---3-----0-3-1-0-|---3-----0-3-1-0-|---3-----0-3---1-|-0---2~~---------|
B|---0-----1-0-1-1-|---0-----1-0-1-1-|---0-----1-0---1-|-1---1~~---------|
G|---0-----2-0-2-0-|---0-----2-0-2-0-|---0-----2-0---2-|-0---2~~---------|
D|---0-----2-0-3-2-|---0-----2-0-3-2-|---0-----2-0---3-|-2---0~~---------|
A|---2-----0-2-3-3-|---2-----0-2-3-3-|---2-----0-2---3-|-3---------------|
E|-3-3-------3-1---|-3-3-------3-1---|-3-3-------3---1-|-----------------|


*******
 Verse
*******

e|-----------------|-----------------|-----------------|-----------------|
B|-----0-----0-----|-----0-----0-----|-----0-----0-----|-----0-----0-----|
G|-------0-----0---|-------0-----0---|-------0-----0---|-------0-----0---|
D|-----------------|-----------------|-----------------|-----------------|
A|-----------------|-----------------|-----------------|-----------------|
E|-3-------3-------|-3-------3-------|-3-------3-------|-3-------3-------|

 | 1 + 2 + 3 + 4 + | 1 + 2 + 3 + 4 + | 1 + 2 + 3 + 4 + | 1 + 2 + 3 + 4 + |

e|-----------------|-----------------|-----------------|-----------------|
B|-----0-----0-----|-----0-----0-----|-----------------|-----------------|
G|-------0-----0---|-------0-----0---|-----4-----4-----|-----4-----4-----|
D|-----------------|-----------------|-------4-----4---|-------4-----4---|
A|-----------------|-----------------|-----------------|-----------------|
E|-3-------3-------|-3-------3-------|-2-------2-------|-2-------2-------|

 | 1 + 2 + 3 + 4 + | 1 + 2 + 3 + 4 + | 1 + 2 + 3 + 4 + | 1 + 2 + 3 + 4 + |

e|-----------------|-----------------|-----------------|-----------------|
B|-----------------|-----------------|-----------------|-----------------|
G|-----4-----4-----|-----4-----4-----|-----4-----4-----|-----------------|
D|-------3-----3---|-------3-----3---|-------2-----2---|-----2h3-2p0-----|
A|-----------------|-----------------|-----------------|-------------3-2-|
E|-1-------1-------|-1-------1-------|-0-------0-------|-0-------0-------|

 | 1 + 2 + 3 + 4 + | 1 + 2 + 3 + 4 + | 1 + 2 + 3 + 4 + | 1 + 2 + 3 + 4 + |

e|-0---------------|-----------------|-1---------------|-----------------|
B|-1---------1-----|-----------1-----|-1---------1-----|-----------1-----|
G|-2-----2-------2-|-------2---------|-2-----2-------2-|-------2-------2-|
D|-----2-------2---|-----2-----------|-----3-------3---|-----3-------3---|
A|-0-------0-------|-0-------0-------|-----------------|-----------------|
E|-----------------|-------------3---|-1-------1-------|-1-------1-------|

 | 1 + 2 + 3 + 4 + | 1 + 2 + 3 + 4 + | 1 + 2 + 3 + 4 + | 1 + 2 + 3 + 4 + |

e|-3---------------|-----------------|-3---------------|-----------------|
B|-0---------0-----|-----------0-----|-0---------0-----|-----------0-----|
G|-0-----0-------0-|-------0-------0-|-0-----0-------0-|-------0-------0-|
D|-----0-------0---|-----0-------0---|-----0-------0---|-----0-------0---|
A|-----------------|-----------------|---------0-------|-2---------------|
E|-3-------3-------|-3-------3-------|-3---------------|---------3-------|


******
CHORUS
******

 | 1 + 2 + 3 + 4 + | 1 + 2 + 3 + 4 + | 1 + 2 + 3 + 4 + | 1 + 2 + 3 + 4 + |

e|-3---------------|-----------------|-0---------------|-----------------|
B|-0---------0-----|-----0---1---3---|-----------0-----|-----1---0-------|
G|-0-----0-------0-|-----------------|-------0-------0-|-------------2---|
D|-----0-------0---|-----------------|-----2-------2---|-----2---0-------|
A|-----------------|---------0---2---|-3---------------|-3-----------3---|
E|-3-------3-------|-3---3-----------|---------3-------|-----------------|


 | 1 + 2 + 3 + 4 + | 1 + 2 + 3 + 4 + | 1 + 2 + 3 + 4 + | 1 + 2 + 3 + 4 + |

e|-3---------------|-----------------|-0---------------|-----------------|
B|-0---------0-----|-----0---1---3---|-----------0-----|-----1---0-------|
G|-0-----0-------0-|-----------------|-------0-------0-|-------------2---|
D|-----0-------0---|-----------------|-----2-------2---|-----2---0-------|
A|-----------------|---------0---2---|-3---------------|-3-----------3---|
E|-3-------3-------|-3---3-----------|---------3-------|-----------------|

 | 1 + 2 + 3 + 4 + | 1 + 2 + 3 + 4 + | 1 + 2 + 3 + 4 + | 1 + 2 + 3 + 4 + |

e|---3-----0-3-1-0-|---3-----0-3-1-0-|---3-----0-3---1-|-0---2~~---------|
B|---0-----1-0-1-1-|---0-----1-0-1-1-|---0-----1-0---1-|-1---1~~---------|
G|---0-----2-0-2-0-|---0-----2-0-2-0-|---0-----2-0---2-|-0---2~~---------|
D|---0-----2-0-3-2-|---0-----2-0-3-2-|---0-----2-0---3-|-2---0~~---------|
A|---2-----0-2-3-3-|---2-----0-2-3-3-|---2-----0-2---3-|-3---------------|
E|-3-3-------3-1---|-3-3-------3-1---|-3-3-------3---1-|-----------------|

*******
 Verse
*******

e|-----------------|-----------------|-----------------|-----------------|
B|-----0-----0-----|-----0-----0-----|-----0-----0-----|-----0-----0-----|
G|-------0-----0---|-------0-----0---|-------0-----0---|-------0-----0---|
D|-----------------|-----------------|-----------------|-----------------|
A|-----------------|-----------------|-----------------|-----------------|
E|-3-------3-------|-3-------3-------|-3-------3-------|-3-------3-------|

 | 1 + 2 + 3 + 4 + | 1 + 2 + 3 + 4 + | 1 + 2 + 3 + 4 + | 1 + 2 + 3 + 4 + |

e|-----------------|-----------------|-----------------|-----------------|
B|-----0-----0-----|-----0-----0-----|-----------------|-----------------|
G|-------0-----0---|-------0-----0---|-----4-----4-----|-----4-----4-----|
D|-----------------|-----------------|-------4-----4---|-------4-----4---|
A|-----------------|-----------------|-----------------|-----------------|
E|-3-------3-------|-3-------3-------|-2-------2-------|-2-------2-------|

 | 1 + 2 + 3 + 4 + | 1 + 2 + 3 + 4 + | 1 + 2 + 3 + 4 + | 1 + 2 + 3 + 4 + |

e|-----------------|-----------------|-----------------|-----------------|
B|-----------------|-----------------|-----------------|-----------------|
G|-----4-----4-----|-----4-----4-----|-----4-----4-----|-----------------|
D|-------3-----3---|-------3-----3---|-------2-----2---|-----2h3-2p0-----|
A|-----------------|-----------------|-----------------|-------------3-2-|
E|-1-------1-------|-1-------1-------|-0-------0-------|-0-------0-------|

 | 1 + 2 + 3 + 4 + | 1 + 2 + 3 + 4 + | 1 + 2 + 3 + 4 + | 1 + 2 + 3 + 4 + |

e|-0---------------|-----------------|-1---------------|-----------------|
B|-1---------1-----|-----------1-----|-1---------1-----|-----------1-----|
G|-2-----2-------2-|-------2---------|-2-----2-------2-|-------2-------2-|
D|-----2-------2---|-----2-----------|-----3-------3---|-----3-------3---|
A|-0-------0-------|-0-------0-------|-----------------|-----------------|
E|-----------------|-------------3---|-1-------1-------|-1-------1-------|

 | 1 + 2 + 3 + 4 + | 1 + 2 + 3 + 4 + | 1 + 2 + 3 + 4 + | 1 + 2 + 3 + 4 + |

e|-3---------------|-----------------|-3---------------|-----------------|
B|-0---------0-----|-----------0-----|-0---------0-----|-----------0-----|
G|-0-----0-------0-|-------0-------0-|-0-----0-------0-|-------0-------0-|
D|-----0-------0---|-----0-------0---|-----0-------0---|-----0-------0---|
A|-----------------|-----------------|---------0-------|-2---------------|
E|-3-------3-------|-3-------3-------|-3---------------|---------3-------|


******
CHORUS
******


 | 1 + 2 + 3 + 4 + | 1 + 2 + 3 + 4 + | 1 + 2 + 3 + 4 + | 1 + 2 + 3 + 4 + |

e|-3---------------|-----------------|-0---------------|-----------------|
B|-0---------0-----|-----0---1---3---|-----------0-----|-----1---0-------|
G|-0-----0-------0-|-----------------|-------0-------0-|-------------2---|
D|-----0-------0---|-----------------|-----2-------2---|-----2---0-------|
A|-----------------|---------0---2---|-3---------------|-3-----------3---|
E|-3-------3-------|-3---3-----------|---------3-------|-----------------|


 | 1 + 2 + 3 + 4 + | 1 + 2 + 3 + 4 + | 1 + 2 + 3 + 4 + | 1 + 2 + 3 + 4 + |

e|-3---------------|-----------------|-0---------------|-----------------|
B|-0---------0-----|-----0---1---3---|-----------0-----|-----1---0-------|
G|-0-----0-------0-|-----------------|-------0-------0-|-------------2---|
D|-----0-------0---|-----------------|-----2-------2---|-----2---0-------|
A|-----------------|---------0---2---|-3---------------|-3-----------3---|
E|-3-------3-------|-3---3-----------|---------3-------|-----------------|

 | 1 + 2 + 3 + 4 + | 1 + 2 + 3 + 4 + | 1 + 2 + 3 + 4 + | 1 + 2 + 3 + 4 + |

e|---3-----0-3-1-0-|---3-----0-3-1-0-|---3-----0-3---1-|-0---2~~---------|
B|---0-----1-0-1-1-|---0-----1-0-1-1-|---0-----1-0---1-|-1---1~~---------|
G|---0-----2-0-2-0-|---0-----2-0-2-0-|---0-----2-0---2-|-0---2~~---------|
D|---0-----2-0-3-2-|---0-----2-0-3-2-|---0-----2-0---3-|-2---0~~---------|
A|---2-----0-2-3-3-|---2-----0-2-3-3-|---2-----0-2---3-|-3---------------|
E|-3-3-------3-1---|-3-3-------3-1---|-3-3-------3---1-|-----------------|


*******
 Outro
*******

 | 1 + 2 + 3 + 4 + | 1 + 2 + 3 + 4 + | 1 + 2 + 3 + 4 + | 1 + 2 + 3 + 4 + |

e|-----------------|-----------------|-----------------|-----------------|
B|-----------------|-----------------|-----------------|-----------------|
G|-----0-----0-----|-----0-----0-----|-----2-----2-----|-----2-----2-----|
D|-------0-----0---|-------0-----0---|-------0-----0---|-------0-----0---|
A|-----------------|-----------------|-----------------|-----------------|
E|-3-------3-------|-3-------3-------|-2-------2-------|-2-------2-------|

 | 1 + 2 + 3 + 4 + | 1 + 2 + 3 + 4 + | 1 + 2 + 3 + 4 + | 1 + 2 + 3 + 4 + |

e|-----------------|-----------------|
B|-----------------|-----------------|
G|-----0-----0-----|-----0-----0-----|
D|-------3-----3---|-------3-----3---|
A|-----------------|-----------------|
E|-1-------1-------|-1-------0-------|

 | 1 + 2 + 3 + 4 + | 1 + 2 + 3 + 4 + |

e|-----------------|---------3~~~----|
B|-----0h1p0-1-----|---------0~~~----|
G|-----0h2p0-2-0-0-|-0---0---0~~~----|
D|-----0-----3-2---|-0h2-0---0~~~----|
A|---------------3-|---------2~~~----|
E|-3---------------|---------3~~~----|
comments
We did not receive enough feedback on this tab! Please rate:
1 2 3 4 5
I want to post or [tab]
guest
You may want to rate the tab now too:
select rating
Please do not post tabs as comments. Select "correction" instead!