Oops, an error
Loading. Please wait.

Out Of The Sinking Bass Tab

2,584 views 18 this week
no commentswrite comment
1 2 3 4 5
accurate
x 3
Autoscroll
+/-
esc
set tempo
stop
Contributor
Hey! There's an official Ultimate Guitar app which is ideal
for learning songs when you're away from computer. Get the app
WARNING: You are trying to view
                                    content from Ultimate-Guitar.com
                                    in an unauthorized application,
                                    which is prohibited.

                                    Please use an official Ultimate
                                    Guitar Tabs application for iPhone,
                                    iPad or Android to access legitimate
                                    chords, guitar, bass, and drum tabs
                                    from Ultimate-Guitar.com database.

                                    Type "ultimate guitar tabs" in Apple
                                    App Store's or Android Market's
                                    search to find the application.
Out of the Thinking    
Paul Weller                            


I've tabbed this in Guitar Pro and imported it in ASCII, that's why I didn't use the template.
If there are any questions about the tab, post them in the comments.
Everything tabbed by ear.

                                                                     
Tuning: Standard (EADG)

     H.           Q        E  E  E  E  E  E  E  E   
G||---------------------|--------------------------|
D||---------------7\----|--------------------------|
A||---------------------|--------7--7--------7--7--|
E||---------------------|--0--0--------0--0--------|


  E  E  E  E  S S S S E  E     E  E  E  E  E  E  E  E   
----------------------------|--------------------------|
----------------------------|--------------------------|
--------7--7----------7--7--|--------7--7--------7--7--|
--0--0--------0-0-0-0-------|--0--0--------0--0--------|


  E  E  E  E  S S S S E  E      E  E  E  E  E  E  E  E   
-----------------------------|--------------------------|
-----------------------------|--------------------------|
--------7--7--7-7-7-7-7--7\--|--------7--7--------7--7--|
--0--0-----------------------|--0--0--------0--0--------|

				  |Verse 1
  E  E  E  E    E   S  S  E   E      E  E  E  E  E  E  E  E   
----------------------------------|--------------------------|
---------------14--14-14-14--14\--|--------------------------|
--------7--7/---------------------|--------7--7--------7--7--|
--0--0----------------------------|--0--0--------0--0--------|


  E  E  E  E   E  S S E  E     E  E  E  E  E  E  E  E   
----------------------------|--------------------------|
----------------------2-----|--------4--4--------4--4--|
--------7--7\--2--2-4----4--|--------------------------|
--0--0----------------------|--2--2--------2--2--------|


  E  E   E  E  E  E  E  E     E  E  E  E  E  E  E  E   
---------------------------|--------------------------|
---------7--7--6--6--4--4--|--------------------------|
---------------------------|--------7--7--------7--7--|
--2--2/--------------------|--0--0--------0--0--------|


  E  E  E  E   E  E  E  E     E  E  E  E  E  E  E  E   
---------------------------|--------------------------|
---------------------2-----|--------------------------|
--------7--7\--2--4-----4--|--2--2--2--2--2--2--2--2--|
--0--0---------------------|--------------------------|


  E  E  E  E  E  E  E  E      E  E  E  E  E  E  E  E   
---------------------------|--------------------------|
---------------------------|--------------------------|
---------------------------|--------7--7--------7--7--|
--5--5--5--5--5--5--5--5\--|--0--0--------0--0--------|

                             |Chorus
  E  E  E  E  S S S S S S E     E  T  T S E  E  Q    E  E    
-----------------------------|---------------6-------4------|
------------------2-4-2------|-----4h-6-L-4-------------6\--|
--------7--7--2-4-------4-2--|--4---------------------------|
--0--0-----------------------|------------------------------|


  E  S S E   E  Q    E  E      E  T  T S E  E  E  E  E  E    
----------------------------|---------------6-----6--4------|
------------/4-------2------|-----4h-6-L-4--------------6\--|
--2--2-4-2--------------4\--|--4----------------------------|
----------------------------|-------------------------------|


  E  S S E   E  E  E  E  E      E  T  T S E  E  E  E  E  E    
-----------------------------|---------------6-----6--4------|
------------/4-----4--2------|-----4h-6-L-4--------------6\--|
--2--2-4-2---------------4\--|--4----------------------------|
-----------------------------|-------------------------------|


  E  S S E   E  E  E  S S E     E  E  E  E  E  E  E  S S  
-----------------------------|---------------------------|
------------/4--------4------|---------------------------|
--2--2-4-2---------2----4-2--|---------------------------|
-----------------------------|--5--5--5--5--5--5--5--3-4-|


  E  E  E  E  E  E  E  S S    E  E  E  E  E  E  T  T S E   
---------------------------|------------------------------|
---------------------------|------------------------------|
---------------------------|------------------------------|
--5--5--5--5--5--5--5--3-4-|--5--5--5--5--5--5--4h-5-L-4--|


  E  E  E  E  E  E  E  E     E  E  E  E  S S S S E  E   
--------------------------|----------------------------|
--------------------------|----------------------------|
--------7--7--------7--7--|--------7--7----------7--7--|
--0--0--------0--0--------|--0--0--------0-0-0-0-------|


  E  E  E  E  E  E  E  E     S S S S E  E  S S S S E  E   
--------------------------|------------------------------|
--------------------------|------------------------------|
--------7--7--------7--7--|--7-7-7-7-7--7----------------|
--0--0--------0--0--------|----------------4-4-4-4-2--0--|

|Bridge
  Q    S S S S E  E  E  E     E  E  E  E  E  E  E  E   
---------------------------|--------------------------|
---------------------------|--------------------------|
--5----5-5-5-5-5--------7--|--L--7--7-----------2-----|
------------------5--------|-----------0--2--4-----4--|


  Q    S S S S E  E  E  E     E  E  E  E  S S E  E  E   
---------------------------|---------------------------|
---------------------------|---------------------------|
--5----5-5-5-5-5--------7--|--L--7--7--7--7-7-7--7--7--|
------------------5--------|---------------------------|


  Q    S S S S E  E  E  E     E  E  E  E  E  E  E  E   
---------------------------|--------------------------|
---------------------------|--------------------------|
--5----5-5-5-5-5--------7--|--L--7--7-----------2-----|
------------------5--------|-----------0--2--4-----4--|


  Q    S S S S E  E  E  E     E  E  E  E  E  E  Q     
---------------------------|-------------------------|
---------------------------|-------------------------|
--5----5-5-5-5-5--------7--|--L--7--7--7--------5----|
------------------5--------|--------------3--3-------|


  Q    S S S S E  E  E  E     E  E  S S S S S S E   E  S S  
---------------------------|------------7-9-7--------------|
---------------------------|--------7-9-------9-7\-----7---|
--5----5-5-5-5-5--------7--|--L--7------------------7----7-|
------------------5--------|-------------------------------|


  Q    S S S S E  E  E  E     E  E  E  E  E  E  E   E   
---------------------------|---------------------------|
---------------------------|---------------------------|
--5----5-5-5-5-5--------2--|--L--2--2--2--2--2--2\-----|
------------------5--------|---------------------------|

|Verse 2
  E  E  E  E  E  E  E  E     E  E  E  E  S S S S E  E   
--------------------------|----------------------------|
--------------------------|----------------------------|
--------7--7--------7--7--|--------7--7----------7--7--|
--0--0--------0--0--------|--0--0--------0-0-0-0-------|


  E  E  E  E  E  E  E  E     E  E  E  E  S S S S E  E   
--------------------------|----------------------------|
--------------------------|----------------------------|
--------7--7--------7--7--|--------7--7--7-7-7-7-7-----|
--0--0--------0--0--------|--0--0----------------------|


  E  E  E  E  E  E  E  E     E  E  E  E   E  E  E  E   
--------------------------|---------------------------|
--------------------------|---------------------2-----|
--------7--7--------7--7--|--------7--7\--2--4-----4--|
--0--0--------0--0--------|--0--0---------------------|


  E  E  E  E  E  E  E  E     E  E   E  E  E  E  E  E   
--------------------------|---------------------------|
--------------------------|---------7--7--6--6--4--4--|
--------4--4--------4--4--|---------------------------|
--2--2--------2--2--------|--2--2/--------------------|


  E  E  E  E  E  E  E  E     E  E  E  E  E  E  E   E   
--------------------------|---------------------------|
--------------------------|---------------------------|
--------7--7--------7--7--|--------7--7--7--7--7\-----|
--0--0--------0--0--------|--0--0---------------------|


  E  E  E  E  E  E  E  E     E  E  E  E   E  E  E  E   
--------------------------|---------------------------|
--------------------------|---------------------2-----|
--------7--7--------7--7--|--------7--7\--2--4-----4--|
--0--0--------0--0--------|--0--0---------------------|


  E  E  E  E  E  E  E  E     E  E   E  E  E  E  E  E   
--------------------------|---------------------------|
--------------------------|---------7--7--6--6--4--4--|
--------4--4--------4--4--|---------------------------|
--2--2--------2--2--------|--2--2/--------------------|


  E  E  E  E  E  E  E  E     E  E  E  E   E  E  E  E   
--------------------------|---------------------------|
--------------------------|---------------------2-----|
--------7--7--------7--7--|--------7--7\--2--4-----4--|
--0--0--------0--0--------|--0--0---------------------|


  E  E  E  E  E  E  E  E     E  E  E  E  E  E  E  E    
--------------------------|---------------------------|
--------------------------|---------------------------|
--2--2--2--2--2--2--2--2--|---------------------------|
--------------------------|--5--5--5--5--5--5--5--5\--|


  E  E  E  E  E  E  E  E     E  E  E  E  S  S S  S S  S E    
--------------------------|-------------------9-11-9--------|
--------------------------|--------------9-11--------11-9\--|
--------7--7--------7--7--|--------7--7---------------------|
--0--0--------0--0--------|--0--0---------------------------|

|Chorus
  E  T  T S E  E  E  E  E  E      E  S S E   E  E  E  S S E   
---------------6-----6--4------|-----------------------------|
-----4h-6-L-4--------------6\--|------------/4--------4------|
--4----------------------------|--2--2-4-2---------2----4-2--|
-------------------------------|-----------------------------|


  E  T  T S E  E  E  E  Q       E  S S E   E  S S S S S S E   
---------------6-----6--4----|-------------------------------|
-----4h-6-L-4----------------|------------/4----------4------|
--4--------------------------|--2--2-4-2--------2-4-2---4-2--|
-----------------------------|-------------------------------|


  E  T  T S E  E  E  E  E  E      E  S S E   E  E  E  S S E   
---------------6-----6--4------|-----------------------------|
-----4h-6-L-4--------------6\--|------------/4--------4------|
--4----------------------------|--2--2-4-2---------2----4-2--|
-------------------------------|-----------------------------|


  E  E  E  E  E  E  E  S S    E  E  E  E  E  E  E  S S  
---------------------------|---------------------------|
---------------------------|---------------------------|
---------------------------|---------------------------|
--5--5--5--5--5--5--5--3-4-|--5--5--5--5--5--5--5--3-4-|


  E  E  E  E  E  E  T  T S E     E  T  T S E  E  E  E  E  E    
------------------------------|---------------6-----6--4------|
------------------------------|-----4h-6-L-4--------------6\--|
------------------------------|--4----------------------------|
--5--5--5--5--5--5--4h-5-L-5--|-------------------------------|


  E  S S E   E  E  E  S S E     E  T  T S E  E  E  E  Q     
-----------------------------|---------------6-----6--4----|
------------/4--------4------|-----4h-6-L-4----------------|
--2--2-4-2---------2----4-2--|--4--------------------------|
-----------------------------|-----------------------------|


  E  S S E   E  S S S S S S E     E  T  T S E  E  E  E  E  E    
-------------------------------|---------------6-----6--4------|
------------/4----------4------|-----4h-6-L-4--------------6\--|
--2--2-4-2--------2-4-2---4-2--|--4----------------------------|
-------------------------------|-------------------------------|


  E  S S E   E  E  E  S S E     E  E  E  E  E  E  E  S S  
-----------------------------|---------------------------|
------------/4--------4------|---------------------------|
--2--2-4-2---------2----4-2--|---------------------------|
-----------------------------|--5--5--5--5--5--5--5--3-4-|


  E  E  E  E  E  E  E  S S    E  E  E  E  E  E  T  T S E   
---------------------------|------------------------------|
---------------------------|------------------------------|
---------------------------|------------------------------|
--5--5--5--5--5--5--5--3-4-|--5--5--5--5--5--5--4h-5-L-4--|


  E  E  E  E  E  E  E  E     E  E  E  E  E  E  E  E   
--------------------------|--------------------------|
--------------------------|--------------------------|
--------7--7--------7--7--|--------7--7--------7--7--|
--0--0--------0--0--------|--0--0--------0--0--------|


  E  E  E  E  E  E  E  E     E  E  E  E  Q    Q       E  E  E  E  E  E  E  E   
--------------------------|------------------------|--------------------------|
--------------------------|------------------------|--------------------------|
--------7--7--------7--7--|--------7--7------------|--------7--7--------7--7--|
--0--0--------0--0--------|--0--0--------3----5----|--0--0--------0--0--------|


  S S S S E  E  Q    Q       E  E  E  E  E  E  E  E   
--------------------------|--------------------------|
--------------------------|--------------------------|
--7-7-7-7-7--7------------|--------7--7--------7--7--|
----------------3----5----|--0--0--------0--0--------|

			    |Outro
  E  E  E  E  S S S S E  E     Q    S S S S E  E  E  E   
----------------------------|---------------------------|
----------------------------|---------------------------|
--------7--7----------------|--5----5-5-5-5-5--------7--|
--0--0--------4-4-4-4-2--0--|------------------5--------|


  E  E  E  E  S S E  E  E     Q    S S S S E  E  E   E   
---------------------------|----------------------------|
---------------------------|----------------------------|
--L--7--7--7--7-7-7--7--7--|--5----5-5-5-5-5--------/7--|
---------------------------|------------------5---------|


  E  E  E  E  E  E  E  E     Q    S S S S E  E  E  E   
--------------------------|---------------------------|
--------------------------|---------------------------|
--L--7--7--7--------5-----|--5----5-5-5-5-5--------7--|
--------------3--3--------|------------------5--------|


  E  S S S S S S S S  E   E  E       
---------7-9-7------------------|
-----7-9-------9-7--------------|
--L----------------7-10b--7--2--|
--------------------------------|


  Q      S  S  S  S  T   T  S  E   S  S  E   
--------11-11-11-11-11h-12--L-11------------|
----------------------------------14-11-14--|
--5/----------------------------------------|
--------------------------------------------|

   W                  
--------------------||
---L----------------||
--------------------||
--------------------||




Duration Legend
---------------
W - whole
H - half
Q - quarter
E - 8th
S - 16th
T - 32nd


Tablature Legend
----------------
L - tied note
h - hammer on
p - pull off
b - bend
/ -  slide into from below or out of upwards
\ -  slide into from above or out of downwards
comments
We did not receive enough feedback on this tab! Please rate:
print report bad tab
1 2 3 4 5
I want to post or [tab]
guest
You may want to rate the tab now too:
select rating
Please do not post tabs as comments. Select "correction" instead!