Oops, an error
Loading. Please wait.

Wild Wood Tab

ver1
ver1

Whole song

Interactive

More versions @911Tabs.com
50,886 views 42 this week
1 commentread comment
1 2 3 4 5
accurate
x 6
Autoscroll
+/-
esc
set tempo
stop
Hey! There's an official Ultimate Guitar app which is ideal
for learning songs when you're away from computer. Get the app
WARNING: You are trying to view
                                    content from Ultimate-Guitar.com
                                    in an unauthorized application,
                                    which is prohibited.

                                    Please use an official Ultimate
                                    Guitar Tabs application for iPhone,
                                    iPad or Android to access legitimate
                                    chords, guitar, bass, and drum tabs
                                    from Ultimate-Guitar.com database.

                                    Type "ultimate guitar tabs" in Apple
                                    App Store's or Android Market's
                                    search to find the application.
Wild Wood - Paul Weller

Chords: All relative to Capo on the 2nd fret. I have been very frustrated with the wild 
tabs which have appeared so hopefully this will set the benchmark as it is 100% accurate.

Am      [x02210]
Am9     [x02000]
Dm7     [xx0211]
Dm7b5   [1x0111]

Intro:

            Am
e-----------------0--------0-----0-0---0-0-----------|
B-----------------1-----1--1-----1-1---1-1-0---------|
G---------0--2----2--2--2--2-----2-2-2-2-2-0---------|
D----0--2---------2--2--2------------2---------------|
A------------0----------------0----------------------|
E----------------------------------------------------|
  Am9                        Dm7
e-----0-----0-----0----0-0-0--1--1--1--1---1-1-1-1-1-|
B-----0--0--0--0--0--0-0-0-0--1--1--1--1---1-1-1-1-1-|
G-----0--0--0--0--0--0-0-0-0--2--2--2--2---1-1-1-1-1-|
D--2-----2-----2-----2-2-2-2--0--0--0--0-0---0---0---|
A--0-------------------------------------------------|
E----------------------------------------------------|
      Am
e-0-0------0--0-----0--0---------0-------------------|
B-0-0--1---1--1-----1--1--1------1--0-----1----------|
G-0-0--2---2--2--2--2--2--2---2--2--0--2--0----------|
D------2---------2--------2---2-----0--2-------------|
A------0------------------0---0----------------------|
E----------------------------------------------------|

Verse 1:

Am          Am9
High tide,  mid-afternoon,
Dm7           Dm7b5
People fly by,
        Am
And the traffics boom
Am                       Am9
Going, just where you're blowing,
Dm7              Dm7b5
Getting to where,
              Am      Am
You should be going

Verse 2:

Am              Am9
Don't let, them get you down,
Dm7         Dm7b5
Making you feel,
Am
Guilty about.
Am                Am9
Golden Rain, will bring you riches,
Dm7              Dm7b5
Of the good things,
Am
You deserve and now....

Solo:  (tabed as if there is no capo, but chords are
         relative to capo.)

  Am                      Am9
e----------------------------------------------------|
B----------------------------------------------------|
G----------------------------------------------------|
D------------------------------------------7----7----|
A--7--9---9--9------------7--9---7--9----------------|
E----------------------10----------------------------|
  Dm7          Dm7b5      Am
e-----------------------------------------------------|
B-----------------------------------------------------|
G---------------------------------------------7-7-----|
D-----------------------------------------7-9-----7-9-|
A-9-\7--5---5--7----7--5--7--5--7-/9--9-0-------------|
E---------7-------------------------------------------|


Verse 3:

Am                 Am9
Climbing, forever trying,
Dm7               Dm7b5
Find your way out,
Am
Of the wild wild wood.
Am              Am9
Now there's no justice,
Dm7              Dm7b5
If only yourself,
Am
Now you can trust in...and I say....

Verse 1 Repeated:

Am          Am9
High tide,  mid-afternoon,
Dm7           Dm7b5
People fly by,
        Am
And the traffics boom
Am                       Am9
Going, just where you're blowing,
Dm7              Dm7b5
Getting to where,
              Am      Am
You should be going

Solo:  (tabed as if there is no capo, but chords are
         relative to capo.)

  Am                      Am9
e----------------------------------------------------|
B----------------------------------------------------|
G----------------------------------------------------|
D------------------------------------------7----7----|
A--7--9---9--9------------7--9---7--9----------------|
E----------------------10----------------------------|
  Dm7          Dm7b5      Am
e-----------------------------------------------------|
B-----------------------------------------------------|
G---------------------------------------------7-7-----|
D-----------------------------------------7-9-----7-9-|
A-9-\7--5---5--7----7--5--7--5--7-/9--9-0-------------|
E---------7-------------------------------------------|

Verse 4:

Am            Am9
Day by day, your world fades away,
Dm7             Dm7b5
Waiting to feel,
Am
All the dreams that say.
Am                        Am9
Golden Rain will bring you riches,
Dm7                Dm7b5
Of the good things,
Am
You deserve and now
Am                 Am9
Climbing, forever trying,
Dm7               Dm7b5
Find your way out,
Am
Of the wild wild wood.
Dm7                                Dm7b5
Said you're gonna find you way out,
Am
of the wild wild wood.
comments
print report bad tab
1 comment total.
0 reply
cw6 wrote on February 22 2006, 11:26 am

The Dm7 chord is Dm7/G (3x0211). This is how Weller plays it live.

I want to post or [tab]
guest
You may want to rate the tab now too:
select rating
Please do not post tabs as comments. Select "correction" instead!