Oops, an error
Loading. Please wait.

Breath Tab

ver2
ver2

Whole song

Interactive

More versions @911Tabs.com
18,814 views 18 this week
no commentswrite comment
1 2 3 4 5
excellent!
x 2
Autoscroll
+/-
esc
set tempo
stop
Contributor
Difficulty
novice
WARNING: You are trying to view
                                    content from Ultimate-Guitar.com
                                    in an unauthorized application,
                                    which is prohibited.

                                    Please use an official Ultimate
                                    Guitar Tabs application for iPhone,
                                    iPad or Android to access legitimate
                                    chords, guitar, bass, and drum tabs
                                    from Ultimate-Guitar.com database.

                                    Type "ultimate guitar tabs" in Apple
                                    App Store's or Android Market's
                                    search to find the application.
Song:"Breath" by Pearl Jam
Tabbed by: jimbopo (groundwork by bsteele)
e-mail: unsupersmith@gmail.com

Tuning:

Guitar 1: Standard eBGDAE - distortion: overdriven
Guitar 2: Standard eBGDAE - distortion: moderate

Intro (0:00)
 G1
e|-3-3-3-|-----0--------------3----------------|------------------------------|
B|-3-3-3-|-----0--------------3----------------|------------------------------|
G|-0-0-0-|-9\0----------------0----------------|------------------------------|
D|-0-0-0-|-9\0----------------0----------------|------------------------------|
A|-0-0-0-|-7\0----------0-2-4-5-----5------0h2-|------------------------------|
E|-0-0-0-|-0------0-2-4---------------4b-0-----|------------------------------|


 G2 		 *E scale for G2 only in live version
e|-3-3-3-|-----0-------------------------------|------------------------------|
B|-3-3-3-|-----0--------------8----------------|------------------------------|
G|-0-0-0-|-----9----------4-6-7----------------|------------------------------|
D|-0-0-0-|-----9----4-6-7-----5----------------|------------------------------|
A|-0-0-0-|-----7--7-----------5--5--5----------|------------------------------|
E|-------|-----0----------------------5--0-5h7-|------------------------------|


 G1
e|-------0--------------3----------------|-------|------------------------|---|
B|-------0--------------3----------------|-------|-0----------------------|---|
G|-9\0---1--------------0----------------|-9\0---|-1----------------------|---|
D|-9\0(2)2--------------0----------------|-9\0(2)|-2----------------------|---|
A|-7\0(2)2--------0-2-4-5--5--5------0h2-|-7\0(2)|-2----------------------|---|
E|-0--(0)0--0-2-4---------------5--5-----|-0--(0)|-0----------------------|---|


 G2
e|---------------------------------------|-------|------------------------|---|
B|----------------------8----------------|-------|------------------------|---|
G|-------9----------4-6-7----------------|-------|-13\-11-13--13-13-13-14\|---|
D|-------9----4-6-7-----5----------------|-------|------------------------|---|
A|-------7--7-----------5--5--5----------|-------|-11\--9-11--11-11-11-12\|---|
E|-------0----------------------5--5-5h7-|-0-----|------------------------|---|


 G1 *The octaves from G2 are very loud so most of this is just a guess
e|---------------------------------------|-----------------------------------|
B|---------------------------------------|-----------------------------------|
G|---------------------------9\0---------|-------------------------------9\0-|
D|---------------------------9\0-(2)-----|-------------------------------9\0-|
A|-------------5--5----------7\0-(2)-----|-----------------5--5------0h2-7\0-|
E|------------------5--0-5h7-0---(0)-----|----------------------5--0-----0---|


 G2
e|---------------------------------------|-----------------------------------|
B|---------------------------------------|-----------------------------------|
G|-/-14\13-14-14\13-14/16-13~------------|-(13)13-11/13-11~------------------|
D|----------------------------14\7-7/(14)|-----------------12\7--------------|
A|-/-12\11-12-12\11-12/14-11~------------|-(11)11--9/11--9~------------------|
E|----------------------------12\5-5/(12)|-----------------10\5--------------|


 G1
e|---------------------------------------------|-----------------------------|
B|---------------------------------------------|-----------------------------|
G|---------------------------------------------|-9\0-------------------------|
D|-(2)-----------------------------------------|-9\0(2)----------------------|
A|-(2)-----------------------------------------|-7\0(2)------------------5-/-|
E|-(0)-----------------------------------------|-0--(0)----------------------|


 G2
e|---------------------------------------------------------------------------|
B|---------------------------------------------------------------------------|
G|-13\-11-13--13-13-13-14\/-14\13-14-14\13-14/16-13~---------(13)13-11/13\11-|
D|--------------------------------------------------14\7-7/14----------------|
A|-11\--9-11--11-11-11-12\/-12\11-12-12\11-12/14-11~---------(11)11--9/11\9--|
E|--------------------------------------------------12\5-5/12----------------|

Verse (0:34)
 G1 w/o G2
e|-------------------------------------|-0-----------------------------------|
B|-----0-------------------------------|-------------------------------------|
G|-------------------------------------|-----------------------^7-^5---------|
D|----------------------^5-------------|--------------------^7---------------|
A|-------------------^5----------------|-----------------^7------------------|
E|-------------------------------------|--------------^7---------------------|
 	Oh to-night be-gan with any-thing...
 (0:46)
 G1
e|---0---------------------------------|-----------------5-------------------|
B|-------------------------------------|-0-------------3---------------------|
G|-1-----------------------------------|-------------------------------------|
D|----------------------^5-------------|-------------------------------------|
A|-------------------^5----------------|-------------------------------------|
E|-------------------------------------|-------------------------------------|
 Path of light, of warm breath and of scream .     oh yeah...

 G2
e|-------------------------------------|-------------------------------------|
B|-------------------------------------|--------------------------------(9)9-|
G|-------------------------------------|--------------------------------(9)9-|
D|-------------------------------------|--------------------------------(9)9-|
A|-------------------------------------|--------------------------------(7)7-|
E|-------------------------------------|-------------------------------------|

 (0:58)
 G1
e|------0------------------------------|-----0--------------5----------------|
B|----0---------------3----------------|----------------1/3---3-5-3----------|
G|-------------------------------------|----------------------------0--------|
D|-------------------------------------|-5/6----------0----------------------|
A|-------------------------------------|-------------------------------------|
E|-------------------------------------|-------------------------------------|
Oh, tamper if you like, between the doors.    Oh yeah.... huh.... huh...

 G2
e|-------------------------------------|-------------------------------------|
B|-9--------9--8--7--------7(7)--------|-------------------------------------|
G|-9--------9--8--7--------7(7)--------|-------------------------------------|
D|-9--------9--8--7--------7(7)--------|-------------------------------------|
A|-7--------7--6--5--------5(5)--------|-------------------------------------|
E|-------------------------------------|-------------------------------------|

 (1:09)
 G1
e|----0------------------5-------------|----0-------0-0-0----------0-0-0-----|
B|-0-----0------------3-----3----------|-0-----0----0-0-0----------0-0-0-----|
G|-------------------------------------|------------0-0-0----------0-0-0-9\0-|
D|-------------------------------------|------------0-0-0----------0-0-0-9\0-|
A|-------------------------------------|------------0-0-0----------0-0-0-7\0-|
E|-------------------------------------|---------------------------------0---|
 Oh, can't expect to go out... to go out with anything... anything more...

 G2
e|-0-----------------------------------|-------0-0-0-8-----------------------|
B|-0-----------------------------------|-------0-0-0-8-----------------------|
G|-9--------8-----7---------8-----9----|-------0-0-0-5-----------------------|
D|-9--------8-----7---------8-----9----|-------0-0-0-7--12\7-----------------|
A|-7--------------5---------6-----7----|-------0-0-0-5--------5--5-----------|
E|-------------------------------------|----------------10\5-------5--5h7-0--|

Chorus (1:21)
 G1
e|-0--------------3--------------------|--0-------------3--------------------|
B|-0--------------3--------------------|--0-------------3--------------------|
G|----------------0----------------9\0-|----------------0----------------9\0-|
D|----------------0----------------9\0-|-2--------------0----------------9\0-|
A|----2-0---0-2-4-5--5--5------0h2-7\0-|-2--2-0---0-2-4-5--5--5------0h2-7\0-|
E|--------4---------------5--0-----0---|-0------4---------------5--0-----0---|
Reach the door. A breath that is held. Reach the door. And anotha other thing;

 G2
e|-0-----------------------------------|-0-----------------------------------|
B|-0--------------8--------------------|-0--------------8--------------------|
G|-9----------4-6-7--------------------|-9----------4-6-7--------------------|
D|-9----4-6-7-----5--------------------|-9----4-6-7-----5--------------------|
A|-7--7-----------5--5--5--------------|-7--7-----------5--5--5--------------|
E|-0----------------------5--0-5h7-0-0-|-0----------------------5--0-5h7-0-0-|

(1:33)
 G1
e|-0--------------3--------------------|-0-----------------------------------|
B|-0--------------3--------------------|-0-----------------------------------|
G|----------------0----------------9\0-|-1-----------------------------------|
D|----------------0----------------9\0-|-------------------------------------|
A|----2-0---0-2-4-5--5--5------0h2-7\0-|-------------------------------------|
E|--------4---------------5--0-----0---|-------------------------------------|
 Life ain't what it's worth. A breath that is held... Reach the door...

 G2
e|-0-----------------------------------|-0-----------------------------------|
B|-0--------------8--------------------|-0-----------------------------------|
G|-9----------4-6-7--------------------|----13-x(13)-13-11/13-11----\--------|
D|-9----4-6-7-----0--------------------|-------------------------------------|
A|-7--7--------------------------------|----11-x(11)-11--9/11-9-----\--------|
E|-0-----------------------------------|-------------------------------------|

Verse (1:44)
 G1 w/o G2
e|-------------------------------------|-------------------------------------|
B|-------------------------------------|-0--------------------------^5-------|
G|-1-------------------^7--------------|-------------------------^5----------|
D|------------------^7-----------------|----------------------^5-------------|
A|-------------------------------------|-------------------^5----------------|
E|-------------------------------------|-------------------------------------|
 All these reaching hands out grabbin' things... grabbin' me.

 G1 w/o G2
e|-------------------------------------|----------------------0--------------|
B|-0-----------------------------------|---0----------------3----------------|
G|-------------------------------------|-1---1-------------------------------|
D|------------------^7-----------------|-------------------------------------|
A|-------------------------------------|-------------------------------------|
E|-------------------------------------|-------------------------------------|
 Day in, day out ac-cumu-la-ting.			Ah yeah.

 G1
e|-------------------5-----------------|----0---------------0----------------|
B|-0---0-----------3-------------------|----------------------3--------------|
G|-1---1--0----------------------------|-0h1----1-0------0h2-----0-----------|
D|-2------------0--------------------2-|-------------0-4---------------------|
A|-2---------------------------------2-|-------------------------------------|
E|-----------------------------------0-|-------------------------------------|
I suggest you step out... 'round your porch.  Oh, yeah.  Huh.. huh... oh yeah.

G2
e|-------------------------------------|-------------------------------------|
B|(9)-------9--8--7--------7(7)--------|-------------------------------------|
G|(9)-------9--8--7--------7(7)--------|-------------------------------------|
D|(9)-------9--8--7--------7(7)--------|-------------------------------------|
A|(7)-------7--6--5--------5(5)--------|-------------------------------------|
E|-------------------------------------|-------------------------------------|


 G1
e|----------------5--------------------|------------0-0-0--------------------|
B|---------3----3---3----------0-------|------------0-0-0--------------------|
G|-1----0--2-----------------1---1-----|----2-------0-0-0----------------9\0-|
D|-2----0------------------------------|--0---0-----0-0-0--0--0----------9\0-|
A|-------------------------------------|------------0-0-0-------0----0h2-7\0-|
E|-------------------------------------|---------------------------0-----0---|
   Run away my son..             see it all.         Oh, see the world...

 G2
e|-0-----------------------------------|--------0-0-0-8----------------------|
B|-0-----------------------------------|--------0-0-0-8----------------------|
G|-9--------8-----7---------8-----9----|--------0-0-0-5--------------------x-|
D|-9--------8-----7---------8-----9----|--------0-0-0-7--12\7--------------x-|
A|-7--------------5---------6-----7----|--------0-0-0-5-------5------------x-|
E|-------------------------------------|-----------------10\5---5--0-5h7-0-x-|

Chorus (2:30)
 G1
e|-0--------------3--------------------|----------------3--------------------|
B|-0--------------3--------------------|-0--------------3--------------------|
G|----------------0----------------9\0-|-1--------------0----------------9\0-|
D|----------------0----------------9\0-|-2--------------0----------------9\0-|
A|----2-0---0-2-4-5--5--5------0h2-7\0-|-2--2-0---0-2-4-5--5--5------0h2-7\0-|
E|--------4---------------5--0-----0---|--------4---------------5--0-----0---|
Reach the door. A breath that is held. Reach the door. And anotha other thing;

 G2
e|-0-----------------------------------|-0-----------------------------------|
B|-0--------------8--------------------|-0--------------8--------------------|
G|-9----------4-6-7--------------------|-9----------4-6-7--------------------|
D|-9----4-6-7-----5--------------------|-9----4-6-7-----5--------------------|
A|-7--7-----------5--5--5--------------|-7--7-----------5--5--5--------------|
E|-0----------------------5--0-5h7-0-0-|-0----------------------5--0-5h7-0-0-|


 G1
e|-0--------------3--------------------|-0-----------------------------------|
B|-0--------------3--------------------|-0-------------------------------0-0-|
G|----------------0----------------9\0-|---------------------------------0-0-|
D|----------------0----------------9\0-|---------------------------------0-0-|
A|----2-0---0-2-4-5--5--5------0h2-7\0-|---------------------------------0-0-|
E|--------4---------------5--0-----0---|-------------------------------------|
 Life ain't what it's worth. A breath that is held... Reach the door...

  G2
e|-0-----------------------------------|-0-----------------------------------|
B|-0--------------8--------------------|-0-----------------------------0-0---|
G|----------------7--------------------|---13-x(13)-13-11/13-11--11-11-----0-|
D|----------------0--------------------|-----------------------------------0-|
A|-------------------------------------|---11-x(11)-11--9/11--9---9--------0-|
E|-------------------------------------|-------------------------------------|

(2:53)
 G1+G2
e|--------------------------------------------------------|-------------------|
B|--------------------------------------------------------|-------------------|
G|-6-6-6-6-6-6-6-6-6-6-6-6-4-6-6-6-6-6-6-6-6-6-6-6-8-8--9-|-------------------|
D|-6-6-6-6-6-6-6-6-6-6-6-6-4-6-6-6-6-6-6-6-6-6-6-6-8-8--9-|-------------------|
A|-4-4-4-4-4-4-4-4-4-4-4-4-2-4-4-4-4-4-4-4-4-4-4-4-6-6--7-|-------------------|
E|--------------------------------------------------------|-------------------|
Come.  Then it goes.  Then it goes. Can't see throught the faith...
*Here it comes. Where'd it come.  Where'd it come.   (*pre-recorded vocals)
 G1
e|----------------------------|-----------------------------------------------|
B|----------------------------|-----------------------------------------------|
G|-9\0------------------------|-----------------------------------------------|
D|-9\0------------------------|-----------------------------------------------|
A|-7\0------------------------|-----------------------------------------------|
E|-0--------------------------|-----------------------------------------------|
		Ooh hoo hoo..

 G2
e|----------------------------|-----------------------------------------------|
B|----------------------------|-----------------------------------------------|
G|-0-13-13/14-(14)14-13/14\13-|-----------------------------------------------|
D|-0--------------------------|-----------------------------------------------|
A|-0-11-11/12-(12)12-11/12\11-|-----------------------------------------------|
E|----------------------------|-----------------------------------------------|


 G1+G2
e|--------------------------------------------------------|-------------------|
B|--------------------------------------------------------|-------------------|
G|-6-6-6-6-6-6-6-6-6-6-6-6-4-6-6-6-6-6-6-6-6-6-6-6-8-8--9-|-------------------|
D|-6-6-6-6-6-6-6-6-6-6-6-6-4-6-6-6-6-6-6-6-6-6-6-6-8-8--9-|-------------------|
A|-4-4-4-4-4-4-4-4-4-4-4-4-2-4-4-4-4-4-4-4-4-4-4-4-6-6--7-|-------------------|
E|--------------------------------------------------------|-------------------|
Come. Then it goes. Press what you can, until there's somethin'
*Here it comes.     Press what you can.
 G1
e|----------------------------|-----------------------------------------------|
B|----------------------------|-----------------------------------------------|
G|-9\0------------------------|-----------------------------------------------|
D|-9\0------------------------|-----------------------------------------------|
A|-7\0------------------------|-----------------------------------------------|
E|-0--------------------------|-----------------------------------------------|
 Inside your head... Yeah.

 G2
e|------------------------------|---------------------------------------------|
B|------------------------------|---------------------------------------------|
G|-9-0-13-13/14-(14)14-13/14\13-|---------------------------------------------|
D|-9-0--------------------------|---------------------------------------------|
A|-7-0-11-11/12-(12)12-11/12\11-|---------------------------------------------|
E|------------------------------|---------------------------------------------|


 G1+G2
e|------------4------------4-------------------------------------------------|
B|(0)0-0(0)---4-(4)4--4-4--4--(4)4-4-----5-5-----5-5--5----------------------|
G|(0)0-0(0)-4-4-(4)4--4-4--4--(4)4-4--6--6-6--6--6-6--6------9-----1-----9---|
D|(0)0-0(0)-6-6-(6)6--6-6--6--(6)6-6--7--7-7--7--7-7--7------9-----2--x--9\2-|
A|(0)0-0(0)-6---(6)6--6-6--6--(6)6-6--7--7-7--7--7-7--7------7-----2--x--7\2-|
E|----------4--------------4----------5-------5--------------0-----0--x--0---|
Oh, If I knew where it was I would take you there.There's much more than this!
			  *I would take you there.There's much more than this.
Chorus (3:28)
 G1
e|-0--------------3--------------------|----------------3--------------------|
B|-0--------------3--------------------|-0--------------3--------------------|
G|----------------0----------------9\0-|-1--------------0----------------9\0-|
D|----------------0----------------9\0-|-2--------------0----------------9\0-|
A|----2-0---0-2-4-5--5--5------0h2-7\0-|-2--2-0---0-2-4-5--5--5------0h2-7\0-|
E|--------4---------------5--0-----0---|--------4---------------5--0-----0---|
  		Much more than this!			Much more than..
  *Woah!			     Oh, see the world.		   Hoo!
 G2
e|-0-----------------------------------|-0-----------------------------------|
B|-0--------------8--------------------|-0--------------8--------------------|
G|-9----------4-6-7--------------------|-9----------4-6-7--------------------|
D|-9----4-6-7-----5--------------------|-9----4-6-7-----5--------------------|
A|-7--7-----------5--5--5--------------|-7--7-----------5--5--5--------------|
E|-0----------------------5--0-5h7-0-0-|-0----------------------5--0-5h7-0-0-|


 G1
e|---------------------------------------------|-----------------------------|
B|---------------------------------------------|-----------------------------|
G|---------------------------------------------|-9\0-------------------------|
D|-(2)-----------------------------------------|-9\0(2)----------------------|
A|-(2)-----------------------------------------|-7\0(2)----------------------|
E|-(0)-----------------------------------------|-0--(0)----------------------|


 G2
e|---------------------------------------------------------------------------|
B|---------------------------------------------------------------------------|
G|-13\-11-13--13-13-13-14\-/14p13-14-14p13-14/16-13----------(13)13-11/13\11-|
D|--------------------------------------------------14\7-7/14----------------|
A|-11\--9-11--11-11-11-12\-/12p11-12-12p11-12/14-11----------(11)11--9/11\9--|
E|--------------------------------------------------12\5-5/12----------------|


 G1
e|-------------------------|--------------------------------------------------|
B|-------------------------|--------------------------------------------------|
G|------------------9\0----|--------------------------------------------------|
D|------------------9\0-(2)|--------------------------------------------------|
A|----5--5----------7\0-(2)|--------------------------------------------------|
E|---------5--0-5h7-0---(0)|--------------------------------------------------|
 Much more than..

 G2
e|-------------------------|--------------------------------------------------|
B|-------------------------|--------------------------------------------------|
G|-------------------------|--------------------------------------------------|
D|-12\7--------------------|--------------------------------------------------|
A|-------5-----------------|--------------------------------------------------|
E|-10\5----5--0-5h7-0------|--------------------------------------------------|


 G1
e|---------------------------------------------|-----------------------------|
B|---------------------------------------------|-----------------------------|
G|---------------------------------------------|-9\0-------------------------|
D|-2-------------------------------------------|-9\0(2)----------------------|
A|-2-------------------------------------------|-7\0(2)----------------------|
E|-0-------------------------------------------|-0--(0)----------------------|
  Na   na na   nanana na    nana na  nana  nanana            na na  nanana

 G2
e|---------------------------------------------------------------------------|
B|---------------------------------------------------------------------------|
G|-13\-11-13--13-13-13-14\-/14p13-14-14p13-14/16-13----------(13)13-11/13\11-|
D|--------------------------------------------------14\7-7/14----------------|
A|-11\--9-11--11-11-11-12\-/12p11-12-12p11-12/14-11----------(11)11--9/11\9--|
E|--------------------------------------------------12\5-5/12----------------|


 G1
e|------------------------------------------|---------------------------------|
B|-------------15fb======================r\-|---------------------------------|
G|------------------------------------------|---------------------------------|
D|------------------------------------------|---------------------------------|
A|------------------------------------------|---------------------------------|
E|------------------------------------------|---------------------------------|
 Ooooh!			Wha Yeah!

 G2
e|------------------------------------------|---------------------------------|
B|------------------------------------------|---------------------------------|
G|-----(11)11-9/11-9------------------------|---------------------------------|
D|-7/14-------------------------------------|---------------------------------|
A|------(9)-9-7/9--7------------------------|---------------------------------|
E|-5/12-------------------------------------|---------------------------------|

Solo (4:04)				(4:10)
 G1
e|---------------------12----------------------|------------------------------|
B|----15fb---15fbr15~~---15-12---12------------|------------------------------|
G|-19fb---19fb-----------------14---14fbr14p12-|------------------------------|
D|---------------------------------------------|------------------------------|
A|---------------------------------------------|------------------------------|
E|---------------------------------------------|------------------------------|


 G2
e|-------------------------------------|--------------------------------------|
B|----------------8--------------------|--------------------------------------|
G|-9\-1-----------5--------------------|--------------------------------------|
D|-9\-2-----------7--------------------|--------------------------------------|
A|-7\-2-----------5--------------------|--------------------------------------|
E|-0--0--------------------------------|--------------------------------------|


 G1
e|------------------------------------------------|---------------------------|
B|----12------------------------------------------|---------------------------|
G|----12----12------9-7---------------------------|---------------------------|
D|-14----14----14~~-----9-7-5-7-7b8r7---5-5h7-7~~-|---------------------------|
A|------------------------------------7-----------|---------------------------|
E|------------------------------------------------|---------------------------|


 G2
e|-------------------------------------|--------------------------------------|
B|----------------8--------------------|--------------------------------------|
G|-9\-1-----------5--------------------|--------------------------------------|
D|-9\-2-----------7--------------------|--------------------------------------|
A|-7\-2-----------5--------------------|--------------------------------------|
E|-0--0--------------------------------|--------------------------------------|

(4:16)
 G1
e|------------------------3p0------------------------|------------------------|
B|----0-0---------3-5p3-------3----------------------|------------------------|
G|-2fb===r2p0---2fb-----4-------2p0-2p0-2brp0---0----|------------------------|
D|------------2-------------------------------2---2/-|------------------------|
A|---------------------------------------------------|------------------------|
E|---------------------------------------------------|------------------------|


 G2
e|-------------------------------------|--------------------------------------|
B|----------------8--------------------|--------------------------------------|
G|-9\-1-----------5--------------------|--------------------------------------|
D|-9\-2-----------7--------------------|--------------------------------------|
A|-7\-2-----------5--------------------|--------------------------------------|
E|-0--0--------------------------------|--------------------------------------|


 G1
e|---------------------------------------------------------------|------------|
B|------------------------------------------15----15----15~\-0-0-|------------|
G|-14-14-14-14-14p12-12--------12--12-12-14fb--14fb--14fb==\-0-0-|------------|
D|-12-12-12-12-12------14p12\9---14------------------------------|------------|
A|---------------------------------------------------------------|------------|
E|---------------------------------------------------------------|------------|


 G2
e|-------------------------------------|--------------------------------------|
B|----------------8--------------------|--------------------------------------|
G|-9\-1-----------5--------------------|--------------------------------------|
D|-9\-2-----------7-----0--------------|--------------------------------------|
A|-7\-2-----------5-------0------------|--------------------------------------|
E|-0--0----------------------0-5h7-0-0-|--------------------------------------|


(4:28)
 G1
e|----------------------------------------------------|-----------------------|
B|-22pb24=24=24=24=23=23=23=23r22p20--20fb---17(17)17-|-----------------------|
G|----------------------------------21----21----------|-----------------------|
D|----------------------------------------------------|-----------------------|
A|----------------------------------------------------|-----------------------|
E|----------------------------------------------------|-----------------------|


 G2
e|-0-----------------------------------|--------------------------------------|
B|-0--------------8--------------------|--------------------------------------|
G|-9\-1-----------5--------------------|--------------------------------------|
D|-9\-2-----------7-----0--------------|--------------------------------------|
A|-7\-2-----------5-------0------------|--------------------------------------|
E|-0--0----------------------0-5h7-0-0-|--------------------------------------|


 G1
e|------15-----15-----15-----15-----15-----15-----15-----15------------------|
B|-15h17--15h17--15h17--15h17--15h17--15h17--15h17--15h17--15fbr15\0/22-15-0-|
G|-------------------------------------------------------------------------0-|
D|---------------------------------------------------------------------------|
A|---------------------------------------------------------------------------|
E|---------------------------------------------------------------------------|


 G2
e|-------------------------------------|--------------------------------------|
B|----------------8--------------------|--------------------------------------|
G|-9\-1-----------5--------------------|--------------------------------------|
D|-9\-2-----------7-----0--------------|--------------------------------------|
A|-7\-2-----------5-------0------------|--------------------------------------|
E|-0--0----------------------0-5h7-0-0-|--------------------------------------|

(4:40)
 G1
e|---------------------------------------------------------------------------|
B|-----12-15p12-----------------------12----------------12-------------------|
G|-14fb--------12-16p14p12-14----12-14--12-14fbr14r12---12-9-7-------------0-|
D|-----------------------------14--------------------14-14-----9-7-5---8-7-0-|
A|-------------------------------------------------------------------7-------|
E|---------------------------------------------------------------------------|


 G2
e|-0-----------------------------------|--------------------------------------|
B|-0--------------8--------------------|--------------------------------------|
G|-9\-1-----------5--------------------|--------------------------------------|
D|-9\-2-----------7-----0--------------|--------------------------------------|
A|-7\-2-----------5-------0------------|--------------------------------------|
E|-0--0----------------------0-5h7-0-0-|--------------------------------------|


 G1
e|---------------------------15---15-----15-----15-----15--------------------|
B|(20)20b23r20-20p17--17-(17)--17---17p15--17p15--17p15--17p15-17t17--20b23r\|
G|------------------19-------------------------------------------------------|
D|---------------------------------------------------------------------------|
A|---------------------------------------------------------------------------|
E|---------------------------------------------------------------------------|


 G2
e|-------------------------------------|--------------------------------------|
B|----------------7----7----7----7-----|--------------------------------------|
G|-9\-1-----------7----7----7----7-----|--------------------------------------|
D|-9\-2-----------7----7----7----7-----|--------------------------------------|
A|-7\-2-----------5----5----5----5-----|--------------------------------------|
E|-0--0--------------------------------|--------------------------------------|


(4:52)
 G1
e|-----------------------------------------------------------|----------------|
B|-----------------3-3-5/7/8\7\5/7\5-3h5/7\5p0-7h9/10\9\7-5--|----------------|
G|-2-4-2-0-2-0-2/4-------------------------------------------|----------------|
D|-----------------------------------------------------------|----------------|
A|-----------------------------------------------------------|----------------|
E|-----------------------------------------------------------|----------------|


 G2
e|-----------------|-----------------|----------------------------------------|
B|-----------------|-7---7---7---7---|----------------------------------------|
G|-9\--1---9---9---|-7---7---7---7---|----------------------------------------|
D|-9\--2---9---9---|-7---7---7---7---|----------------------------------------|
A|-7\--2---7---7---|-5---5---5---5---|----------------------------------------|
E|-0---0---0---0---|-----------------|----------------------------------------|


 G1
e|-0------0-------------------------------------|-----------------------------|
B|-8-8--8-8-8--8-8-8-10p8-8-------10p8-8--------|-----------------------------|
G|-9------9------9----9p7---9-7----9p7---9-7----|-----------------------------|
D|------------------------------9------------9--|-----------------------------|
A|----------------------------------------------|-----------------------------|
E|----------------------------------------------|-----------------------------|


 G2
e|-----------------|-----------------|----------------------------------------|
B|-----------------|-7---7---7---7---|----------------------------------------|
G|-9\--1---9---9---|-7---7---7---7---|----------------------------------------|
D|-9\--2---9---9---|-7---7---7---7---|----------------------------------------|
A|-7\--2---7---7---|-5---5---5---5---|----------------------------------------|
E|-0---0---0---0---|-----------------|----------------------------------------|


 G1
e|---------------------------17fb-17-15-----------------------|---------------|
B|10p8-8-------10p8-8------------------17\----12---12p10-12p10|---------------|
G|-9p7---9-7----9p7---9-7-----------------/14fb--14-----------|---------------|
D|-----------9------------9-----------------------------------|---------------|
A|------------------------------------------------------------|---------------|
E|------------------------------------------------------------|---------------|

							fades out...
G2
e|-----------------|-----------------|----------------------------------------|
B|-----------------|-7---7---7---7---|----------------------------------------|
G|-9\--1---9---9---|-7---7---7---7---|----------------------------------------|
D|-9\--2---9---9---|-7---7---7---7---|----------------------------------------|
A|-7\--2---7---7---|-5---5---5---5---|----------------------------------------|
E|-0---0---0---0---|-----------------|----------------------------------------|

				(5:16)
 G1
e|-----------------------------0---0--0--0--|---------------------------------|
B|-----------------9-------0-0-8t-10t-8t-5t-|---------------------------------|
G|-12p9-9-12-9-12---9-12p9-0-0--------------|---------------------------------|
D|------------------------------------------|---------------------------------|
A|------------------------------------------|---------------------------------|
E|------------------------------------------|---------------------------------|


 G2
e|-----------------|-----------------|----------------------------------------|
B|-----------------|-7---7---7---7---|----------------------------------------|
G|-9\--1---9---9---|-7---7---7---7---|----------------------------------------|
D|-9\--2---9---9---|-7---7---7---7---|----------------------------------------|
A|-7\--2---7---7---|-5---5---5---5---|----------------------------------------|
E|-0---0---0---0---|-----------------|----------------------------------------|
								End(5:24)

It's not perfect, but I did put some substantial effort into it. UG didn't
accept my last post of this song so I've re-spaced and re-worked it out some. It's still
characters too wide so adjust page setup before printing. My tab differs from Bryan
during: the intro, in which I changed the first few notes after the initial slide to be 
E scale. I also tied to add the solo, which should've been on Bryan's transcription... The
aren't perfect because the interpretations have been many so don't single them out. 
you just need to know that nobody has all the answers so don't hold your breath waiting for 
to come. Go see the world! ;)

My Tab Notations:

 - = string
 # = frett
 ~ = vibrato
 / = slide up
 \ = slide down
 h = hammer-on
 p = pull-off
 b = bend (to indicated frett or 1/4 step if not specified)
fb = full bend (1 step)
 = = hold bend (except for in this notation guide!)
pb = pre-bend (bend before striking
 r = release bend
 x = string noise (tap)
(#)= mute string (after striking)
 ^ = natrual harmonic
 + = artificial harmonic
 t = trill/tremelo(as noted)
 * = as noted

Comments?
comments
We did not receive enough feedback on this tab! Please rate:
print report bad tab
1 2 3 4 5
I want to post or [tab]
guest
You may want to rate the tab now too:
select rating
Please do not post tabs as comments. Select "correction" instead!