Oops, an error
Loading. Please wait.

Brother Tab

ver1
ver1

Whole song

Interactive

More versions @911Tabs.com
10,321 views 18 this week
1 commentread comment
1 2 3 4 5
accurate
x 6
Autoscroll
+/-
esc
set tempo
stop
Contributor
Difficulty
Tabbers playing skills
advanced
beginner ++
WARNING: You are trying to view
                                    content from Ultimate-Guitar.com
                                    in an unauthorized application,
                                    which is prohibited.

                                    Please use an official Ultimate
                                    Guitar Tabs application for iPhone,
                                    iPad or Android to access legitimate
                                    chords, guitar, bass, and drum tabs
                                    from Ultimate-Guitar.com database.

                                    Type "ultimate guitar tabs" in Apple
                                    App Store's or Android Market's
                                    search to find the application.
Artist: Pearl Jam
Title: Brother Instrumental
Album: Lost Dogs
Transcribed by: allstar340

Standard Tuning
E-A-D-G-B-E

Intro:
-|--------------------------------------------7-9-9b10-9b10r9p7-7-9-7---------|
-|-------7------------------------7---7-9v--9---------------------------------|
-|---6b8---8r6p4---4h6p4------6/8---8-----------------------------------------|
-|---------------6---------6v-------------------------------------------------|
-|----------------------------------------------------------------------------|
-|----------------------------------------------------------------------------|

Lead Guitar 1

-|----------------------------------------------------------------------------|
-|----------------------------------------------------------------------------|
-|----------------------7--7-7--7---7-7--7-7----------------------------------|
-|---6----6----6-6------6--6-6--6---6-6--6-6----------------------------------|
-|---6----6----6-6------5--5-5--5---5-5--5-5----------------------------------|
-|---4----4----4-4------------------------------------------------------------|

 Rhythm G1  (repeat as necessary)

-|----------------------------------------------------------------------------|
-|----------------------------------------------------------------------------|
-|----------------------------------------------------------------------------|
-|-----------------------------------------6/8---6----6/8---6-----------------|
-|----------------------------------------------------------------------------|
-|---4b6--4--4h6--4----4b6-4vv--4h6-4vv----4/6---4----4/6---4-----------------|

Rhythm G2 (comes in at :05)

-|-------4----------------------------------------7b8r7-7--4-7-4--------------|
-|---------7-4---------------------------------------------------7-4----------|
-|---6b8-------6b8-6-4-----------------------------------------------6b8------|
-|----------------------6--4--------------------------------------------------|
-|---------------------------6-5-4-2-4-4b5r4-2--------------------------------|
-|---------------------------------------------4------------------------------|

Lead Guitar 1

-|----------------------------------------------------------------------------|
-|----------------------------------------------------------------------------|
-|-6b8r6-4----6b8r6-4v--4-4v--------------------------------------------------|
-|---------6------------------------------------------------------------------|
-|----------------------------------------------------------------------------|
-|----------------------------------------------------------------------------|

Lead Guitar 1

Verse 1:
-|-----------------------------------------7-----------------------------------|
-|---12v--11h12p11-7v-----12v-11h12p11-7---/9---14v--14p1211h12p11-7-----------|
-|-----------------------------------------------------------------------------|
-|-----------------------------------------------------------------------------|
-|-----------------------------------------------------------------------------|
-|-----------------------------------------------------------------------------|

Verse 1 w/ Delay

-|-----------------------------------------------------------------------------|
-|-----------------------------------------------------------------------------|
-|------------------------------------7-7-7-7-6h7p61---------------------------|
-|---6---4/6----6---4/6----6---4/6---------------------6-x--4/6----------------|
-|---6---4/6----6---4/6----6---4/6---------------------6-x--4/6----------------|
-|---4----------4----------4---------------------------4-----------------------|

Figure 1             end Fig. 1

                                Prechorus:
-|-------------------7-------|-|-----------------------------------------------|
-|--12v--11h12p11-7---/9----|-|---16-16-16-16--1614--17-17-1716----------------|
-|---------------------------|-|---15-15-15-15--1513--16-16-1615---------------|
-|---------------------------|-|-----------------------------------------------|
-|---------------------------|-|-----------------------------------------------|
-|---------------------------|-|-----------------------------------------------|
                              PreChorus Solo Figure 1

-|---------------------------|-|-----------------------------------------------|
-|---------------------------|-|-----------------------------------------------|
-|---------------------------|-|--6/8-8-8-8--86------9-9-9-9-8--6--------------|
-|---------------------------|-|-----------------------------------------------|
-|---------------------------|-|-----------------------------------------------|
-|---------------------------|-|-----------------------------------------------|

Rhy. Fig. 2     (not lined up) end RF2

-|-----------------------------------------------------------------------------|
-|--16-16-16-16--1614--17-17-1716-16-16-16--14---------------------------------|
-|--15-15-15-15--1512--16-16-1615-15-15-15--13---------------------------------|
-|-----------------------------------------------------------------------------|
-|-----------------------------------------------------------------------------|
-|-----------------------------------------------------------------------------|

end S.F. 1

Verse 2:
-|-----------------------------------------7-----------------------------------|
-|--12-12-12-12--1211--97------------7-9---7-9---------------------------------|
-|---------------------------8-6-4---8------------7-7-7-6h7p6-----8-6-4--------|
-|------------------------------------------------------------6--------6-------|
-|-----------------------------------------------------------------------------|
-|-----------------------------------------------------------------------------|

Verse 2 :50 w/ Fig 1

-|----------------------------------------------------------------------------|
-|-9-7-9--------------------------11--b12--11-12--/14b16-r14-12---------------|
-|---------4-6-6b7r6-4-6-6b7r6p4----------------------------------------------|
-|----------------------------------------------------------------------------|
-|----------------------------------------------------------------------------|
-|----------------------------------------------------------------------------|

                          Bridge:
-|----------------------|-----------------------------------------------------|
-|----------------------|---12v---11--9--11-12---11--9--11-12--11b12r11--9----|
-|----------------------|-----------------------------------------------------|
-|----------------------|-----------------------------------------------------|
-|----------------------|-----------------------------------------------------|
-|----------------------|-----------------------------------------------------|
  PChorus 2 w/ S.F. 1/RF2   Bridge  w/ Rhy. G1 intro riff

-|-----------------------12-11--|---------------------------------------------|
-|--11-12---11--9--11-9---------|-----------7vv--5--4vv---7p4--4-5--7p4-4-----|
-|------------------------------|---8vv---------------------------------------|
-|------------------------------|---------------------------------------------|
-|------------------------------|---------------------------------------------|
-|------------------------------|---------------------------------------------|

Bridge (con't)

-|------------------------------|---------------------------------------------|
-|------------------------------|---------------------------------------------|
-|---------------------6b7------|---------------------------------------------|
-|------------------------------|---4--4--4h6--4----4--4-4h6--4---------------|
-|------------------------------|---4----------4----4----4----4---------------|
-|------------------------------|---------------------------------------------|

Rhythm G1

-|-----------------------------------------------------------------------7----|
-|-5p4-----------7p4--4-5p4--------------7p4--4--5p4---------------5p4--------|
-|------4-4h6-4-------------4--4h6-4------------------4--4h6--4---------------|
-|-------------------------------------4-------------------------4-----4----4-|
-|----------------------------------------------------------------------------|
-|----------------------------------------------------------------------------|

Lead G1

-|----------------------------------------------------------------------------|
-|----------------------------------------------------------------------------|
-|---6p4--------------------------------------------4h6--4--------------------|
-|---4-----4---4h6---4-----4--4--4h6--4---4--4h6-4--4----4--------------------|
-|---------4---4-----4-----4--4--4----4---4--4---4----------------------------|
-|----------------------------------------------------------------------------|

Rhythm G1  (not lined up)

-|----------------------------------------------------------------------7vv----|
-|--------97vv--------97vv---------97vv--------97vv---------97vv---------------|
-|---8vv------------8-----------8vv----------8vv-----------8vv-----------------|
-|-----------------------------------------------------------------------------|
-|-----------------------------------------------------------------------------|
-|-----------------------------------------------------------------------------|

Lead G2                                                         into Solo

-|----------------------------------------------------------------------------|
-|-5p4h5-----7p4--7--5------4-7---------------------4--4------7h9-9-----9h12--|
-|----------------------6b8-----6b8r6--4h6-4h6-4----4--4h6-4--8---8--8--------|
-|--------4--------------------------------------6----------------------------|
-|----------------------------------------------------------------------------|
-|----------------------------------------------------------------------------|

Lead G1

                               Solo:
-|---------------------------|--------7-------4-------------------------------|
-|-7h9-------7---------------|----7b9---b9vv----7-4---------------------------|
-|------6/8-----6h8----4-----|----------------------6b8-6b8--6-4---4-6-b8-r6--|
-|------------------6-----6--|-----------------------------------6------------|
-|---------------------------|------------------------------------------------|
-|---------------------------|------------------------------------------------|

Solo  w/ Rhythm Figure 2 (below)

-|-----------------------------------------------------------------------------|
-|-----------------------------------------------------------------------------|
-|-----------------------------------------------------------------------------|
-|----6--6-6---4/6--x----------6--6-6--x--4/6----------------------------------|
-|----6--6-6---4/6--x----------6--6-6--x--4/6----------------------------------|
-|----4--4-4---2/4-----11-----4--4-4-----2/4-------/11-------------------------|

Rhythm Figure 2                  w/ variations        end Rhythm Figure 2

-|-----------------------------------------------------------------------------|
-|------------7/--------7--9p7---9p7---7---------------------------------------|
-|-p4-6b8-b8---------6/8--------8-----8---8---6-4---4-6-6b8-6b8-6b8-6b8--------|
-|-------------------------------------------------6---------------------------|
-|-----------------------------------------------------------------------------|
-|-----------------------------------------------------------------------------|

-|----------------------------------------------------------------------------|
-|-7-----------19b21-r19b21r19b21--21r19-17-----16-16-19-16----16-19p16----16-|
-|-6b8r6b8----------------------------------18--------------18----------18----|
-|----------------------------------------------------------------------------|
-|----------------------------------------------------------------------------|
-|----------------------------------------------------------------------------|

-|-------------------------------------------19-----19-----------18----18-19--|
-|-19p16-----16-19p16-----16-19p16--19b21vvv----b21----b21-19-21----21--------|
-|--------18-----------16-----------------------------------------------------|
-|----------------------------------------------------------------------------|
-|----------------------------------------------------------------------------|
-|----------------------------------------------------------------------------|

-|-18-16--16-19-19-19b21--21r19-16--------|-|---------------------------------|
-|---------------------------------19b21--|-|---------------------------------|
-|----------------------------------------|-|---------------------------------|
-|----------------------------------------|-|---------------------------------|
-|----------------------------------------|-|---------------------------------|
-|----------------------------------------|-|---------------------------------|

Prechorus 3 w/ S.F. 1

Outtro:
-|----------------------------7---7-9-9b11-b11-r9p7---7-9-7-------------------|
-|--/9vv--9v-9v-9v--7h9v-7-9v---9-------------------9-------9-7------7-9-7-9--|
-|--------------------------------------------------------------8--8----------|
-|----------------------------------------------------------------------------|
-|----------------------------------------------------------------------------|
-|----------------------------------------------------------------------------|

End Solo w/ Intro Rhythm Guitar 1

-|----------7-----------------------------------------------------------------|
-|-7-9b11-9---9-7---7--7-9b11-9v----9-7-9b11----------------------------------|
-|----------------8--------------/8----------6h8-6-4---4h6p4-6-4-6-4--4-6-----|
-|---------------------------------------------------6------------------------|
-|----------------------------------------------------------------------------|
-|----------------------------------------------------------------------------|

-|---------------------------------------14----14h16p14----16p14----16p14-----|
-|-----------------/16-14-12h14-12v--/16----16----------16-------16-------16--|
-|-6b7r6-4-6b7vvv-------------------------------------------------------------|
-|----------------------------------------------------------------------------|
-|----------------------------------------------------------------------------|
-|----------------------------------------------------------------------------|

-|-16p14----16p14----16p14----16p14-----19b21vv--16------------16-------------|
-|-------16-------16-------16-------16--------------19-19b21vv----19-16-------|
-|----------------------------------------------------------------------18b20-|
-|----------------------------------------------------------------------------|
-|----------------------------------------------------------------------------|
-|----------------------------------------------------------------------------|

-|----------------------------------------------------------------------------|
-|--16----16---------16----------------------------19b21r19----19b21r19-------|
-|--18b20-18b20-r18-----18-16----16-18b20r18----16----------16----------16----|
-|----------------------------18-------------18-------------------------------|
-|----------------------------------------------------------------------------|
-|----------------------------------------------------------------------------|

-|-----------------------19-19-19-19b21-b21vv----20b22r20-16----19-16----------|
-|-19b21r19----19b21r19---------------------------------------19-------16h19---|
-|----------16-----------------------------------------------------------------|
-|-----------------------------------------------------------------------------|
-|-----------------------------------------------------------------------------|
-|-----------------------------------------------------------------------------|

-|-----------------------------------------------------------------------------|
-|----19-21-19----19h21p19----17-19-17----17-----------------------------------|
-|-18----------18----------18----------18----18---18b20r18p16----16-18b20r18---|
-|-------------------------------------------------------------18--------------|
-|-----------------------------------------------------------------------------|
-|-----------------------------------------------------------------------------|

-|----------------------------------------------------------------------------|
-|----------------------------------------------------------------------------|
-|-----4---4-6b8p6-4-6v-------------------------------------------------------|
-|--/6---6--------------------------------------------------------------------|
-|----------------------------------------------------------------------------|
-|----------------------------------------------------------------------------|

fade out


Enjoy!
comments
print report bad tab
1 comment total.
0 reply
supea wrote on May 23 2009, 08:29 am

Haha I like your style. "beginner" :)

I want to post or [tab]
guest
You may want to rate the tab now too:
select rating
Please do not post tabs as comments. Select "correction" instead!