Oops, an error
Loading. Please wait.

Do The Evolution Tab

ver3
ver3
More versions @911Tabs.com
6,814 views 12 this week
no commentswrite comment
1 2 3 4 5
worth learning
x 1
Autoscroll
+/-
esc
set tempo
stop
Contributor
NEW! There's an official Ultimate Guitar app which is ideal
for learning songs when you're away from computer. Get the app
WARNING: You are trying to view
                                    content from Ultimate-Guitar.com
                                    in an unauthorized application,
                                    which is prohibited.

                                    Please use an official Ultimate
                                    Guitar Tabs application for iPhone,
                                    iPad or Android to access legitimate
                                    chords, guitar, bass, and drum tabs
                                    from Ultimate-Guitar.com database.

                                    Type "ultimate guitar tabs" in Apple
                                    App Store's or Android Market's
                                    search to find the application.
#----------------------------------PLEASE NOTE--------------------------------#
#This file is the author's own work and represents their interpretation of the#
#song. You may only use this file for private study, scholarship, or research.#
#-----------------------------------------------------------------------------#
#-- File created with Instab - http://www.pconline.com/~smcarey/instab.html --#
#-----------------------------------------------------------------------------#

Author/Artist: Pearl Jam
Title: Do The Evolution

A arpeggio
B bend
P pull off
/ slide up
\ slide down


G1,G2,G3 Tuning (c# A D f# a d), Down 10%
G4 Tuning (eb A D G B E), Down ~ 10%


----|------------1--|---------------------------------------------------------
----|-2--2---2---x--|---------------------------------------------------------
--x-|-1----1---4-4--|---------------------------------------------------------
--x-|---------------|---------------------------------------------------------
----|---------------|---------------------------------------------------------
----|---------------|---------------------------------------------------------
  G1 Intro                                                                    

----|--------------------|----------------------------------------------------
----|--------------------|----------------------------------------------------
----|--------------------|----------------------------------------------------
----|--------------------|----------------------------------------------------
----|--------------10-13-|----------------------------------------------------
----|-13--16-13-16-------|----------------------------------------------------
  G2 Intro                                                                    

----|---------------|---------------------------------------------------------
----|------------6--|---------------------------------------------------------
----|------------x--|---------------------------------------------------------
----|-5--------5-5--|---------------------------------------------------------
----|-5--8-5-8------|---------------------------------------------------------
----|---------------|---------------------------------------------------------
  G3 Enters                                                                   



----|----1-1--1-1-------------|
----|----x-x--x-x-------------|
----|-4--4b4b-4b4b------------|
----|-------------------------|
----|---------------13-13-12--|
----|-------------------------|
  G1 Chorus         G3

----|---------------------------------------------------------------------------------------|
----|-------------------------------------------------------------------------------------0-|
----|-------------------------------------------------------------------------------------8-|
----|-------------------------------------------------------------------------------------7-|
----|-------------------------------------------------------------------------------------5-|
----|-14--11-11--11--11--14---11-11--11--11-13---11-9--9--9-11-13-9-7--6--14--11--13--11----|
  G4 Bridge                                                                               G1                                                                

--------------------------------------|--|
---17-17-17-17-17-17-17---17-17-17\---|--|
-/-15-15-15-15-15-15-15---15-15-15\---|--|
-/------------------------------------|--|
--------------------------------------|--|
--------------------------------------|--|
                                          

----|--------------------------------------------------------------------|
----|----17----17----17----17----17----17----17----17----17----17----17--|
----|-17----17----17----17----16----16----16----16----16----16----15-----|
----|--------------------------------------------------------------------|
----|--------------------------------------------------------------------|
----|--------------------------------------------------------------------|
  G1  Bridge

----12----12----12----12----12--------0-----------------------------------|---|
--------------------------------------x--------7-------7-------7------7---|---|
-15----13----13----13----13-----------8------x---8---x---8---x---8--x--8--|---|
--------------------------------------7------x-----7-x-----7-x-----7x----7|---|
--------------------------------------------------------------------------|---|
--------------------------------------------------------------------------|---|
                                    
comments
We did not receive enough feedback on this tab! Please rate:
print report bad tab
1 2 3 4 5
I want to post or [tab]
guest
You may want to rate the tab now too:
select rating
Please do not post tabs as comments. Select "correction" instead!