Oops, an error
Loading. Please wait.

Getaway Tab

ver2
ver2

Intro

Whole song

More versions @911Tabs.com
2,430 views 46 this week
no commentswrite comment
1 2 3 4 5
excellent!
x 1
Autoscroll
+/-
esc
set tempo
stop
Contributor
Difficulty
intermediate
WARNING: You are trying to view
                                    content from Ultimate-Guitar.com
                                    in an unauthorized application,
                                    which is prohibited.

                                    Please use an official Ultimate
                                    Guitar Tabs application for iPhone,
                                    iPad or Android to access legitimate
                                    chords, guitar, bass, and drum tabs
                                    from Ultimate-Guitar.com database.

                                    Type "ultimate guitar tabs" in Apple
                                    App Store's or Android Market's
                                    search to find the application.
Getaway by Pearl Jam 
2013 Lightning Bolt

Mike McCready Guitar
and 
Stone Gossard Guitar

Boths tabs from http://boyaguitarra.blogspot.com

more Pearl Jam Tabs: http://boyaguitarra.blogspot.com/2009/01/pearl-jam.html

/***************************************************************************************/

Mike McCready Guitar

This tab from: http://boyaguitarra.blogspot.com/2013/10/getaway-de-pearl-jam-mike-mccready.html

                                                                   x4
||----------------|----------------|----------------|----------------||
||----------------|----------------|----------------|----------------||
|*-2-2-2--5-5-5-5-|-2-2-2--5-5-5-5-|-2-2-2--7-7-7-7-|-5-5-5----------*|
|*-2-2-2--5-5-5-5-|-2-2-2--5-5-5-5-|-2-2-2--7-7-7-7-|-5-5-5--5-5-5-5-*|
||-0-0-0--3-3-3-3-|-0-0-0--3-3-3-3-|-0-0-0--5-5-5-5-|-3-3-3--5-5-5-5-||
||----------------|----------------|----------------|--------3-3-3-3-||

||-------------------|-------------------|----------------|--------------||
||-------------------|-------------------|----------------|--------------||
|*-------------------|-------------------|----------------|-5-5-5--7-7-7-*|
|*-3-3---7---5-5-----|-3-3---7---5-5-----|-3-3---7---5-5--|-5-5-5--7-7-7-*|
||-3-3---7---5-5-----|-3-3---7---5-5-----|-3-3---7---5-5--|-3-3-3--5-5-5-||
||-1-1---5---3-3---0-|-1-1---5---3-3---0-|-1-1---5---3-3--|--------------||

||----------------|----------------|----------------|----------------||
||----------------|----------------|----------------|----------------||
|*-2-2-2--5-5-5-5-|-2-2-2--5-5-5-5-|-2-2-2--7-7-7-7-|-5-5-5----------*|
|*-2-2-2--5-5-5-5-|-2-2-2--5-5-5-5-|-2-2-2--7-7-7-7-|-5-5-5--5-5-5-5-*|
||-0-0-0--3-3-3-3-|-0-0-0--3-3-3-3-|-0-0-0--5-5-5-5-|-3-3-3--5-5-5-5-||
||----------------|----------------|----------------|--------3-3-3-3-||

||-------------------|-------------------|----------------|--------------||
||-------------------|-------------------|----------------|--------------||
|*-------------------|-------------------|----------------|-5-5-5--7-7-7-*|
|*-3-3---7---5-5-----|-3-3---7---5-5-----|-3-3---7---5-5--|-5-5-5--7-7-7-*|
||-3-3---7---5-5-----|-3-3---7---5-5-----|-3-3---7---5-5--|-3-3-3--5-5-5-||
||-1-1---5---3-3---0-|-1-1---5---3-3---0-|-1-1---5---3-3--|--------------||

|-------------|-------------|-----------------|-----------|
|-------------|-------------|-----------------|-----------|
|-2-2--2-2-2--|-5-5--5-5-5--|-10-10--10-10-10-|-9-9-9-9-9-|
|-2-2--2-2-2--|-5-5--5-5-5--|-10-10--10-10-10-|-9-9-9-9-9-|
|-0-0--0-0-0--|-3-3--3-3-3--|-8--8---8--8--8--|-7-7-7-7-7-|
|-------------|-------------|-----------------|-----------|

|-------------|-------------|-----------------|-----------|-----------|
|-------------|-------------|-----------------|-----------|-----------|
|-2-2--2-2-2--|-5-5--5-5-5--|-10-10--10-10-10-|-9-9-9-9-9-|-9-9-9-9-9-|
|-2-2--2-2-2--|-5-5--5-5-5--|-10-10--10-10-10-|-9-9-9-9-9-|-9-9-9-9-9-|
|-0-0--0-0-0--|-3-3--3-3-3--|-8--8---8--8--8--|-7-7-7-7-7-|-7-7-7-7-7-|
|-------------|-------------|-----------------|-----------|-----------|

|-----|-----|-----|-----|-5/-------------|-5/-------------|-5/-------------|---------------|
|-----|-----|-----|-----|-5/-------------|-5/-------------|-5/-------------|---------------|
|-----|-----|-----|-----|--------5-5-5-5-|--------5-5-5-5-|--------7-7-7-7-|-5-------------|
|-----|-----|-----|-----|--------5-5-5-5-|--------5-5-5-5-|--------7-7-7-7-|-5-----5-5-5-5-|
|-----|-----|-----|-----|--------3-3-3-3-|--------3-3-3-3-|--------5-5-5-5-|-3-----5-5-5-5-|
|-----|-----|-----|-----|----------------|----------------|----------------|-------3-3-3-3-|

|-------------------|-------------------|----------------|----------------|
|-------------------|-------------------|----------------|-5--------------|
|-------------------|-------------------|----------------|-7b9---7-5--5---|
|-3-3---7---5-5-----|-3-3---7---5-5-----|-3-3---7---5-5--|--------------7-|
|-3-3---7---5-5-----|-3-3---7---5-5-----|-3-3---7---5-5--|----------------|
|-1-1---5---3-3---0-|-1-1---5---3-3---0-|-1-1---5---3-3--|----------------|

|-------------------|-------------------|----------------|-5------5------|
|-------------------|-------------------|----------------|-5------5------|
|-------------------|-------------------|----------------|-7b9----7b9----|
|-3-3---7---5-5-----|-3-3---7---5-5-----|-3-3---7---5-5--|---------------|
|-3-3---7---5-5-----|-3-3---7---5-5-----|-3-3---7---5-5--|---------------|
|-1-1---5---3-3---0-|-1-1---5---3-3---0-|-1-1---5---3-3--|---------------|

|---------------|-------------|------------------|---------------|
|-5----5----5---|-5---5-------|-6-----6-----6----|-5----5----5---|
|-7b9--7b9--7b9-|-7b9-7b9-7-5-|-8b10--8b10--8b10-|-7b9--7b9--7b9-|
|---------------|-------------|------------------|---------------|
|---------------|-------------|------------------|---------------|
|---------------|-------------|------------------|---------------|

|---------------|-------------|------------------|---------------|---------------|
|-5----5----5---|-5---5-------|-6-----6-----6----|-5-------------|-5-------------|
|-7b9--7b9--7b9-|-7b9-7b9-7-5-|-8b10--8b10--8b10-|-7b9-----------|-7b9-----------|
|---------------|-------------|------------------|---------------|---------------|
|---------------|-------------|------------------|---------------|---------------|
|---------------|-------------|------------------|---------------|---------------|

|-------------------|-------------------|----------------|----------------|
|-10-10-/8--8-8--/6-|-8-8--/6--6-6---/5-|-8-8-/5--6-6-/5-|----------------|
|-------------------|-------------------|----------------|--7-/-5---------|
|-------------------|-------------------|----------------|----------------|
|-------------------|-------------------|----------------|----------------|
|-------------------|-------------------|----------------|----------------|

|-------------------|-------------------|----------------|----------------|
|-------------------|-------------------|----------------|----------------|
|-4p2p0-4---5p4p0-5-|-7p5p0--7---7-7-/9-|-9/10--12b13b12-|-10p9---10p9----|
|-------------------|-------------------|----------------|-------------10-|
|-------------------|-------------------|----------------|----------------|
|-------------------|-------------------|----------------|----------------|

|-------------|-------------|-----------------|-----------|
|-------------|-------------|-----------------|-----------|
|-2-2--2-2-2--|-5-5--5-5-5--|-10-10--10-10-10-|-9-9-9-9-9-|
|-2-2--2-2-2--|-5-5--5-5-5--|-10-10--10-10-10-|-9-9-9-9-9-|
|-0-0--0-0-0--|-3-3--3-3-3--|-8--8---8--8--8--|-7-7-7-7-7-|
|-------------|-------------|-----------------|-----------|

|-------------|-------------|-----------------|-----------|-----------|
|-------------|-------------|-----------------|-----------|-----------|
|-2-2--2-2-2--|-5-5--5-5-5--|-10-10--10-10-10-|-9-9-9-9-9-|-9-9-9-9-9-|
|-2-2--2-2-2--|-5-5--5-5-5--|-10-10--10-10-10-|-9-9-9-9-9-|-9-9-9-9-9-|
|-0-0--0-0-0--|-3-3--3-3-3--|-8--8---8--8--8--|-7-7-7-7-7-|-7-7-7-7-7-|
|-------------|-------------|-----------------|-----------|-----------|

|---------------|-------------|------------------|---------------|
|-5----5----5---|-5---5-------|-6-----6-----6----|-5----5----5---|
|-7b9--7b9--7b9-|-7b9-7b9-7-5-|-8b10--8b10--8b10-|-7b9--7b9--7b9-|
|---------------|-------------|------------------|---------------|
|---------------|-------------|------------------|---------------|
|---------------|-------------|------------------|---------------|

|---------------|-------------|------------------|---------------|---------------|
|-5----5----5---|-5---5-------|-6-----6-----6----|-5-------------|-5-------------|
|-7b9--7b9--7b9-|-7b9-7b9-7-5-|-8b10--8b10--8b10-|-7b9-----------|-7b9-----------|
|---------------|-------------|------------------|---------------|---------------|
|---------------|-------------|------------------|---------------|---------------|
|---------------|-------------|------------------|---------------|---------------|

|--------------------|----------------------------|----------------------------|
|-5----5----5----5---|-8------8------8------8-----|-10-----10-----10-----10----|
|-7b9--7b9--7b9--7b9-|-10b12--10b12--10b12--10b12-|-12b14--12b14--12b14--12b14-|
|--------------------|----------------------------|----------------------------|
|--------------------|----------------------------|----------------------------|
|--------------------|----------------------------|----------------------------|

|----------------------------|
|-17-----17-----17-----17----|
|-19b21--19b21--19b21--19b21-|
|----------------------------|
|----------------------------|
|----------------------------|


|--------------------|----------------------------|----------------------------|
|-5----5----5----5---|-8------8------8------8-----|-10-----10-----10-----10----|
|-7b9--7b9--7b9--7b9-|-10b12--10b12--10b12--10b12-|-12b14--12b14--12b14--12b14-|
|--------------------|----------------------------|----------------------------|
|--------------------|----------------------------|----------------------------|
|--------------------|----------------------------|----------------------------|

|----------------------------|
|-17-----17-----17-----17----|
|-19b21--19b21--19b21--19b21-|
|----------------------------|
|----------------------------|
|----------------------------|

|-------------------------|--------------------|
|-17-----17-----17--------|--------------------|
|-19b21--19b21--19b21-----|-2------------------|
|-------------------------|-2------------------|
|-------------------------|-0------------------|
|-------------------------|--------------------|

/***********************************************************************************/

Stone Gossard Guitar
This tab from: http://boyaguitarra.blogspot.com/2013/10/getaway-de-pearl-jam-stone-gossard.html

|----------------|----------------|----------------|----------------|
|----------------|----------------|----------------|----------------|
|----------------|----------------|----------------|----------------|
|----------------|----------------|----------------|----------------|
|----------------|----------------|----------------|----------------|
|----------------|----------------|----------------|----------------|
                                                                   x3
||----------------|----------------|----------------|----------------||
||----------------|----------------|----------------|----------------||
|*-2-2-2--5-5-5-5-|-2-2-2--5-5-5-5-|-2-2-2--7-7-7-7-|-5-5-5----------*|
|*-2-2-2--5-5-5-5-|-2-2-2--5-5-5-5-|-2-2-2--7-7-7-7-|-5-5-5--5-5-5-5-*|
||-0-0-0--3-3-3-3-|-0-0-0--3-3-3-3-|-0-0-0--5-5-5-5-|-3-3-3--5-5-5-5-||
||----------------|----------------|----------------|--------3-3-3-3-||

||-------------------|-------------------|----------------|--------------||
||-------------------|-------------------|----------------|--------------||
|*-------------------|-------------------|----------------|-5-5-5--7-7-7-*|
|*-3-3---7---5-5-----|-3-3---7---5-5-----|-3-3---7---5-5--|-5-5-5--7-7-7-*|
||-3-3---7---5-5-----|-3-3---7---5-5-----|-3-3---7---5-5--|-3-3-3--5-5-5-||
||-1-1---5---3-3---0-|-1-1---5---3-3---0-|-1-1---5---3-3--|--------------||

||----------------|----------------|----------------|----------------||
||----------------|----------------|----------------|----------------||
|*-2-2-2--5-5-5-5-|-2-2-2--5-5-5-5-|-2-2-2--7-7-7-7-|-5-5-5----------*|
|*-2-2-2--5-5-5-5-|-2-2-2--5-5-5-5-|-2-2-2--7-7-7-7-|-5-5-5--5-5-5-5-*|
||-0-0-0--3-3-3-3-|-0-0-0--3-3-3-3-|-0-0-0--5-5-5-5-|-3-3-3--5-5-5-5-||
||----------------|----------------|----------------|--------3-3-3-3-||

||-------------------|-------------------|----------------|--------------||
||-------------------|-------------------|----------------|--------------||
|*-------------------|-------------------|----------------|-5-5-5--7-7-7-*|
|*-3-3---7---5-5-----|-3-3---7---5-5-----|-3-3---7---5-5--|-5-5-5--7-7-7-*|
||-3-3---7---5-5-----|-3-3---7---5-5-----|-3-3---7---5-5--|-3-3-3--5-5-5-||
||-1-1---5---3-3---0-|-1-1---5---3-3---0-|-1-1---5---3-3--|--------------||

|-------------|-------------|-----------------|-----------|
|-------------|-------------|-----------------|-----------|
|-2-2--2-2-2--|-5-5--5-5-5--|-10-10--10-10-10-|-9-9-9-9-9-|
|-2-2--2-2-2--|-5-5--5-5-5--|-10-10--10-10-10-|-9-9-9-9-9-|
|-0-0--0-0-0--|-3-3--3-3-3--|-8--8---8--8--8--|-7-7-7-7-7-|
|-------------|-------------|-----------------|-----------|

|-------------|-------------|-----------------|-----------|-----------|
|-------------|-------------|-----------------|-----------|-----------|
|-2-2--2-2-2--|-5-5--5-5-5--|-10-10--10-10-10-|-9-9-9-9-9-|-9-9-9-9-9-|
|-2-2--2-2-2--|-5-5--5-5-5--|-10-10--10-10-10-|-9-9-9-9-9-|-9-9-9-9-9-|
|-0-0--0-0-0--|-3-3--3-3-3--|-8--8---8--8--8--|-7-7-7-7-7-|-7-7-7-7-7-|
|-------------|-------------|-----------------|-----------|-----------|

|-----|-----|-----|-------------|----------------|----------------|----------------|----------------|
|-----|-----|-----|-------------|----------------|----------------|----------------|----------------|
|-----|-----|-----|-------------|-2-2-2--5-5-5-5-|-2-2-2--5-5-5-5-|-2-2-2--7-7-7-7-|-5-5-5----------|
|-----|-----|-----|----5-5-5-5--|-2-2-2--5-5-5-5-|-2-2-2--5-5-5-5-|-2-2-2--7-7-7-7-|-5-5-5--5-5-5-5-|
|-----|-----|-----|----5-5-5-5--|-0-0-0--3-3-3-3-|-0-0-0--3-3-3-3-|-0-0-0--5-5-5-5-|-3-3-3--5-5-5-5-|
|-----|-----|-----|----3-3-3-3--|----------------|----------------|----------------|--------3-3-3-3-|

||-------------------|-------------------|----------------|--------------||
||-------------------|-------------------|----------------|--------------||
|*-------------------|-------------------|----------------|-5-5-5--7-7-7-*|
|*-3-3---7---5-5-----|-3-3---7---5-5-----|-3-3---7---5-5--|-5-5-5--7-7-7-*|
||-3-3---7---5-5-----|-3-3---7---5-5-----|-3-3---7---5-5--|-3-3-3--5-5-5-||
||-1-1---5---3-3---0-|-1-1---5---3-3---0-|-1-1---5---3-3--|--------------||

|-------------|-------------|-----------------|-----------|
|-------------|-------------|-----------------|-----------|
|-2-2--2-2-2--|-5-5--5-5-5--|-10-10--10-10-10-|-9-9-9-9-9-|
|-2-2--2-2-2--|-5-5--5-5-5--|-10-10--10-10-10-|-9-9-9-9-9-|
|-0-0--0-0-0--|-3-3--3-3-3--|-8--8---8--8--8--|-7-7-7-7-7-|
|-------------|-------------|-----------------|-----------|

|-------------|-------------|-----------------|-----------|-----------|
|-------------|-------------|-----------------|-----------|-----------|
|-2-2--2-2-2--|-5-5--5-5-5--|-10-10--10-10-10-|-9-9-9-9-9-|-9-9-9-9-9-|
|-2-2--2-2-2--|-5-5--5-5-5--|-10-10--10-10-10-|-9-9-9-9-9-|-9-9-9-9-9-|
|-0-0--0-0-0--|-3-3--3-3-3--|-8--8---8--8--8--|-7-7-7-7-7-|-7-7-7-7-7-|
|-------------|-------------|-----------------|-----------|-----------|

||-------------------|-------------------|----------------|--------------||
||-------------------|-------------------|----------------|--------------||
|*-------------------|-------------------|----------------|-5-5-5--7-7-7-*|
|*-3-3---7---5-5-----|-3-3---7---5-5-----|-3-3---7---5-5--|-5-5-5--7-7-7-*|
||-3-3---7---5-5-----|-3-3---7---5-5-----|-3-3---7---5-5--|-3-3-3--5-5-5-||
||-1-1---5---3-3---0-|-1-1---5---3-3---0-|-1-1---5---3-3--|--------------||

||-------------|-------------|-----------------|-----------|
||-------------|-------------|-----------------|-----------|
|*-2-2--2-2-2--|-5-5--5-5-5--|-10-10--10-10-10-|-9-9-9-9-9-|
|*-2-2--2-2-2--|-5-5--5-5-5--|-10-10--10-10-10-|-9-9-9-9-9-|
||-0-0--0-0-0--|-3-3--3-3-3--|-8--8---8--8--8--|-7-7-7-7-7-|
||-------------|-------------|-----------------|-----------|
                                                                   x3
|-------------|-------------|-----------------|-----------|-----------||----|
|-------------|-------------|-----------------|-----------|-----------||----|
|-2-2--2-2-2--|-5-5--5-5-5--|-10-10--10-10-10-|-9-9-9-9-9-|-9-9-9-9-9-*|-2--|
|-2-2--2-2-2--|-5-5--5-5-5--|-10-10--10-10-10-|-9-9-9-9-9-|-9-9-9-9-9-*|-2--|
|-0-0--0-0-0--|-3-3--3-3-3--|-8--8---8--8--8--|-7-7-7-7-7-|-7-7-7-7-7-||-0--|
|-------------|-------------|-----------------|-----------|-----------||----|
comments
We did not receive enough feedback on this tab! Please rate:
print report bad tab
1 2 3 4 5
I want to post or [tab]
guest
You may want to rate the tab now too:
select rating
Please do not post tabs as comments. Select "correction" instead!