Oops, an error
Loading. Please wait.

Originals Tab

10,141 views 1 this week
1 commentread comment
1 2 3 4 5
please rate
Autoscroll
+/-
esc
set tempo
stop
Hey! There's an official Ultimate Guitar app which is ideal
for learning songs when you're away from computer. Get the app
WARNING: You are trying to view
                                    content from Ultimate-Guitar.com
                                    in an unauthorized application,
                                    which is prohibited.

                                    Please use an official Ultimate
                                    Guitar Tabs application for iPhone,
                                    iPad or Android to access legitimate
                                    chords, guitar, bass, and drum tabs
                                    from Ultimate-Guitar.com database.

                                    Type "ultimate guitar tabs" in Apple
                                    App Store's or Android Market's
                                    search to find the application.
PjPjPjPjPjPjPjPjPjPjPjPjPjPjPjPjPjPjPjPjPj
Pj                                      Pj
Pj         Non-Album Originals          Pj
Pj                                      Pj 
PjPjPjPjPjPjPjPjPjPjPjPjPjPjPjPjPjPjPjPjPj
Pj      Non-album originals:   
Pj                             
Pj                             
Pj                             
Pj        Alone                
Pj        Angel                
Pj        Breath               
Pj        Dirty Frank          
Pj        Footsteps            
Pj        Habit                
Pj        Hard to Imagine      
Pj        I Got Shit           
Pj        I Got Shit (as       
Pj          incorrectly titled 
Pj          on Aussie Dynamos) 
Pj        Let Me Sleep         
Pj        Long Road            
Pj        Lukin                
Pj        Outta My Mind        
Pj        State of Love        
Pj          and Trust          
Pj        Wash                 
Pj        Yellow Ledbetter     
PjPjPjPjPjPjPjPjPjPjPjPjPjPjPjPjPjPjPjPjPjPjPjPjPjPjPjPjPjPjPjPjPjPjPjPjPjPjPj

Alone

Intro: 

------------------------------------------------------------------------------
------------------------------------------------------------------------------
------------------------------------------------------------------------------
---2-2-2-2-2------------------------------------------------------------------
---2-2-2-2-2------------------------------------------------------------------
---0-0-0-0-0------------------------------------------------------------------

Intro A: 

---7-7-7-7-7-7----------------------------------------------------------------
---8-7-8-7-7-8----------------------------------------------------------------
---7-7-7-7-7-7----------------------------------------------------------------
---9-9-9-9-9-9----------------------------------------------------------------
---7-7-7-7-7-7----------------------------------------------------------------
------------------------------------------------------------------------------

Main Riff A: 

------------------------------------------------------------------------------
------------------------------------------------------------------------------
-------------------------------7-9--------------------------------------------
------------5-7------7-5---7-9------------------------------------------------
--------7-5------7-5-----7----------------------------------------------------
--12\0------------------------------------------------------------------------

Main Riff B: 

------------------------------------------------------------------------------
------------------------------------------------------------------------------
------------------------------------------------------------------------------
------------5-7------7-7-7-7-5------------------------------------------------
--------7-5------7-5-----------7-5--------------------------------------------
-----0------------------------------------------------------------------------


Bridge:

------------------------------------------------------------------------------
------------------------------------------------------------------------------
--------9-9---7-9-----7-9---9-12-11-------------------------------------------
--------9-9---7-9-----7-9---9-12-11-------------------------------------------
--------7-7---5-7-----5-7---7-10--9-------------------------------------------
---12\------0-----0-0-----0---------------------------------------------------


Song Layout:

intro: 1x
Intro A: 4x
Main Riff A: 3x
Main Riff B: 1x
Main Riff A: 7x
Main Riff B: 1x
Intro A: 4x
Main Riff A: 7x
Main Riff B: 1x
Bridge: 4x
Bridge with guitar solo: 8x (not sure about the rythm at this part,
                            but it is using the same chords that are
                            used in the Bridge rythm fig.)   
Intro A: 4x

submitted by:  Fat-Tire@ix.netcom.com


PjPjPjPjPjPjPjPjPjPjPjPjPjPjPjPjPjPjPjPjPjPjPjPjPjPjPjPjPjPjPjPjPjPjPjPjPjPjPj

Angel


This is pretty much just a guideline, as well as a best guess.  Make sure
to keep the "jangle" sound to it.  There are varaitions throughout the song,
but this is the basic idea:

Verse:

--0---------------------------------------------------------------------------
--0-(4)-5--5--5---5-----------------------------------------------------------
--2--/--4--4--4---4-----------------------------------------------------------
--2--/--4--4--4---4-(5)-------------------------------------------------------
--0-------------0-------------------------------------------------------------
----------------5-------------------------------------------------------------

Chorus:

--0---------------------------------------------------------------------------
--3--4--5--5--5---------------------------------------------------------------
--2--4--4--4--4---------------------------------------------------------------
--0--4--4--4--4---------------------------------------------------------------
------------------------------------------------------------------------------
------------------------------------------------------------------------------

Outro:
--0-----0---------------------------------------------------------------------
--5--4--5--4------------------------------------------------------------------
--4--4--4--4------------------------------------------------------------------
--6--4--6--4------------------------------------------------------------------
------------------------------------------------------------------------------
------------------------------------------------------------------------------


PjPjPjPjPjPjPjPjPjPjPjPjPjPjPjPjPjPjPjPjPjPjPjPjPjPjPjPjPjPjPjPjPjPjPjPjPjPjPj

Breath 
 
-0-0-0-----------0-ring-----------------------0----------------------------|--
-0-0-0-----------0--------------------------3------------------------------|--
-0-0-0---9--------------------------------2---------------------9----------|--
-0-0-0---9-------2----------------------0-----------------------9----------|--
-0-0-0---7slide--2------------0--2--3--------------5-----0-2-3--7-slide----|--
-----------------0--------4--------------------------4---------------------|--
                                                                               
                                                                               
Here are the "Hendrix-Style" Octaves that Mike plays at the begining (and
end).  Get the feel of sliding the octaves...don't just play them like 
single notes.  
 
-----------------------------|---------------------------------------------|--
-----------------------------|---------------------------------------------|--
-13---11---13----13-13-13-14-|-14sl-13--14--14sl-13--14sl-16--13-----------|--
-----------------------------|------------------------------------14sl-----|--
-11---9----11----11-11-11-12-|-12sl-11--12--12sl-11--12sl-14--11-----------|--
-----------------------------|------------------------------------12sl-----|--
                                                                               
                                                                               
----------------------------|----------------------------------------------|--
----------------------------|----------------------------------------------|--
-13--13sl-11sl-13--11-------|----------------------------------------------|--
-----------------------12---|----------------------------------------------|--
-11--11sl-9-sl-11--9--------|---5----0--2--3-------------------------------|--
-----------------------10---|-----4----------------------------------------|--
                                                                              
Verse:
 
------------0-----------------5--------------------------------------------|--
---------0----ring--------3------ring--------------------------------------|--
----------------------2----------------------------------------------------|--
---------------------------------------------------------------------------|--
----2----------------------------------------------------------------------|--
----0----------------------------------------------------------------------|--
                                                                               
 
Bridge: 
--------------------------|-------------------------|----------------------|--
--------------------------|-------------------------|----------------------|--
--6--6--6--6--6--6--6--6--|-6-6--8-8--9-9-9-9-9-9-9-|--13----14------------|--
--6--6--6--6--6--6--6--6--|-6-6--8-8--9-9-9-9-9-9-9-|----------------------|--
--4--4--4--4--4--4--4--4--|-4-4--6-6--7-7-7-7-7-7-7-|--11----12------------|--
--------------------------|-------------------------|----------------------|--
Here it comes,  There is goes 
                                                                            
 
                                                                               
----------------------------|----------------------------------e-----------|--
----------------------------|---------------------------------d------------|--
----------------------------|-----------------------------9--i-------------|--
--6-6-6-6-6-6-6-6-6-6-6-6---|---7-7-7-7-7-7-7-7-7-7-7-7---9-l--------------|--
--6-6-6-6-6-6-6-6-6-6-6-6---|---7-7-7-7-7-7-7-7-7-7-7-7---7s---------------|--
--4-4-4-4-4-4-4-4-4-4-4-4---|---5-5-5-5-5-5-5-5-5-5-5-5--------------------|--
If I knew where it was, I would take you there 
                                                                            
Submitted by:  bsteele@asu.edu!
 

PjPjPjPjPjPjPjPjPjPjPjPjPjPjPjPjPjPjPjPjPjPjPjPjPjPjPjPjPjPjPjPjPjPjPjPjPjPjPj

Dirty Frank

Intro/Chorus/Main Riff:

 E7           C7
-7-------------------
-9-\-----------------
-7-------------------
-9-\-----------------
-7------7-6-0-3h4p0--
---------------------

Verse:

 E7           C7
-7------------3------
-9-\----------5--\---
-7------------3------
-9-\----------5--\---
-7------------3------
---------------------

During the whole song there is a lot of ad-libbing,
so just play around with these basic shapes and throw
in some bends and other misc. stuff to keep it 
interesting.


PjPjPjPjPjPjPjPjPjPjPjPjPjPjPjPjPjPjPjPjPjPjPjPjPjPjPjPjPjPjPjPjPjPjPjPjPjPjPj

Footsteps 

Intro           Main riff----------------------------|
                       |-- let ring                                     etc...
--------------|----------------------|----------------|-----------------------
--------------|----------------------|----------------|-----------------------
--------------|--------0----(0)------|-------(0)------|-------0----(0)--------
--------------|-------------(0)------|-----------(0)--|------------(0)--------
--------------|----------------------|----------------|-----------------------
--(3)-(3)-(3)-|---1h3-----3-----1----|--1-------------|--1h3-----3-----1------
                     -----       -------                    -----       ----

Main riff 4x until verse w/slight variations
Play main riff 7 times over verse until

---------------|-----0--0-0-0-x-x-|-------------------------------------------
---------------|-----0--0-0-0-x-x-|-------------------------------------------
-------0-------|-----0--0-0-0-x-x-|-------------------------------------------
--------(0)----|-----0--0-0-0-x-x-|-------------------------------------------
---------------|-----0--0-0-0-x-x-|-------------------------------------------
--1h3------3-1-|--1---------------|-------------------------------------------
              ----

Bridge
  C  C9 C9   Dmajsus4(+9)?      C   C C     Dmajsus4(+9)       C  C9 C9

--0--0--0--|--0-------0-0-0--|--0---0-0--|--0--------0-0-0--|--0--0--0--------
--1--3--3/-|--3---3-3-3-3-3\-|--1---1-1--|--3--3-3-3-3-3-3--|--1--3--3/-------
--0--0--0--|--0---0-0-0-0-0--|--0---0-0--|--0--0-0-0-0-0-0--|--0--0--0--------
--2--2--2/-|--4---4-4-4-4-4\-|--2---2-2--|--4--4-4-4-4-4-4--|--2--2--2/-------
--3--3--3/-|--5-------5-5-5\-|--3---3-3--|--5--------5-5-5--|--3--3--3/-------
-----------|-----------------|-----------|------------------|-----------------
              Ohhh......  I   did              what I had to  do......

 Dmajsus4(+9)        E5             C           
                           (**)                 (main riff again)
--0-------0-0-----|--0---0--0-0--|--0-----------|-----------------------------
--3--3-3--3-3-----|--0---0--0-0--|--1-----------|-----------------------------
--0--0-0--0-0-----|--x---x--x-x--|--0-----(0)---|------0----------------------
--4--4-4--4-4-4-4-|--2---2--2-2--|--2-----------|-----------------------------
--5-------5-5-5-5-|--2---2-------|--3-----------|-----------------------------
------------------|--0---0-------|---------(3)--|--1h3----3-1-----------------
    if there was a  reason.....       It was you.......       (etc.)


Main riff 4x w/slight variations
Play main riff 3 times until above variation
Play entire Bridge with variation above at (**)

  C     C   

--0--|--0---0-0-0-0-0--|------------------------------------------------------
--1--|--1---1-1-1-1-1--|------------------------------------------------------
--0--|--0---0-0-0-0-0--|  then play Bridge again with above variation --------
--2--|--2---2-2-2-2-2--|------------------------------------------------------
--3--|--3---3-3-3-3-3--|------------------------------------------------------
-----|-----------------|------------------------------------------------------

Then play this 4x:

Chorus
  E5       E5/F#                    G          A 
   --- ---- --- ---- --- --- -let ring- --- ---- ---  (***) ---- 
--0--0-0-0----|---------0--0-0-0-|--3---3-3-3--0-|--0--0--0-0-0-0-------------
--0--0-0-0----|---------0--0-0-0-|--0---0-0-0--2-|--2--2--2-2-2-2-------------
--x--x-x-x----|---------x--x-x-x-|--0---0-0-0--2-|--2--2--2-2-2-2-------------
--2--2-2-2----|-----(2)-2--2-2-2-|--0---0-0-0--2-|--2--2--2-2-2-2-------------
--2--2-2-2----|-----(2)-2--2-2-2-|--2---2-2-2--0-|--0--0--0-0-0-0-------------
--0--0-0-0--2-|---2--------------|--3---3-3-3----|----------------------------
             -----
  you.....                          Footsteps  in           the hall...(etc)

On the 4th time, hold the A chord at (***)

Play the main riff 4x with variation on 4th time.
Play Bridge 2x into Chorus
Play Chorus 4x with variation on 4th time.
Then play main riff 4x with variation 1st time as Outro:

--------------------
--------------------
--------------------  Just change the G to a D the first time only.
-------0------------
--------------------
--1h3-----3---1-----
               ----

Submitted by:  cecarman@miav1.acs.muohio.edu


PjPjPjPjPjPjPjPjPjPjPjPjPjPjPjPjPjPjPjPjPjPjPjPjPjPjPjPjPjPjPjPjPjPjPjPjPjPjPj

Habit

Intro:
A   D   A   A#5

Verse: Same as Intro

Interlude:

------------------------------------------------------------------------------
------------------------------------------------------------------------------
----6-------6-------6---------------------------------------------------------
8------8-------8--------8-----------------------------------------------------
6-----------------------------------------------------------------------------
------------------------------------------------------------------------------

Chorus:

------------------------------------------------------------------------------
------------------------------------------------------------------------------
------------------------------------------------------------------------------
7---6----4--------------------------------------------------------------------
5---4-- -2--------------------------------------------------------------------
--------------6--8--6--8--8---------------------------------------------------


Submitted by: Chris DiZio


PjPjPjPjPjPjPjPjPjPjPjPjPjPjPjPjPjPjPjPjPjPjPjPjPjPjPjPjPjPjPjPjPjPjPjPjPjPjPj

Hard to Imagine

        (A)                                                 (B)

 A     A       A        A                    D  B  A   C        
------------------------------------------------------------------------------
-2----------------------------------------------------------------------------
-2-----7-7-h-9-7-7--------------------------------------7-7-7-7-7-h-9---------
-2------------------7-7-h-9-7-7--7-h-9-7--------------------------------------
------------------------------------------------------------------------------
------------------------------------------------------------------------------

     (B)
             
-----------------|------------------------------------------------------------
-----------------|------------------------------------------------------------
-----------------|------------------------------------------------------------
---7-h-9-h-7-7---|------------------------------------------------------------
-----------------|------------------------------------------------------------
-----------------|------------------------------------------------------------

Verse:

A        A      A           A
Paint a picture Isnt all in gray
A        A        A        A
light your pillow lay back watch the flames
A        A        A      A           
I'll tell a story but no one listens that long
A        A           A        A
it's hard to imagine it's hard to imagine

CHORUS (B)

D B(?) A C

D B(?) A C

CHORUS (B)

D B(?) A C
D B(?) A C
D B(?) A C

INTERLUDE

G  A  G  A

G                     A
things were different then
                 G
All is different Now
           A                G
I tried to explain    Somehow
G                     A
things were different then
                 G
all is different now 
           A                G
i tried to explain    somehow


Submitted by:  tremorcry@aol.com


PjPjPjPjPjPjPjPjPjPjPjPjPjPjPjPjPjPjPjPjPjPjPjPjPjPjPjPjPjPjPjPjPjPjPjPjPjPjPj

I Got Shit

Intro, Verse, and Post-Chorus:

D Bb D Bb D C

PreChorus:

Bm F# G

Chorus:

D A Cadd9 G

submitted by:  ryankar@hawaii.edu


PjPjPjPjPjPjPjPjPjPjPjPjPjPjPjPjPjPjPjPjPjPjPjPjPjPjPjPjPjPjPjPjPjPjPjPjPjPjPj

I Got Shit (from Aussie Dynamos)

------------------------------------------------------------------------------
------------------------------------------------------------------------------
--7-7-7-7-7-7-7---8-8-8-8-8-8-8---7-7-7-7-7-7-7---5-5-5-5-5-5-----------------
--7-7-7-7-7-7-7---7-7-7-7-7-7-7---7-7-7-7-7-7-7---7-7-7-7-7-7-----------------
------------------------------------------------------------------------------
------------------------------------------------------------------------------

Fills:

-----------10h12------10h12p10-----10h12---14p12-10---------------------------
------------------------------------------------------------------------------
------------------------------------------------------------------------------
------------------------------------------------------------------------------
------------------------------------------------------------------------------
------------------------------------------------------------------------------

------------------------------------------------------------------------------
------------------------------------------------------------------------------
--2---------------------------------------------------------------------------
------4--2--0-----------------------------------------------------------------
------------------------------------------------------------------------------
------------------------------------------------------------------------------


--14-14-14-14-14---15-15-15-15-15---14-14-14-14-14---12-12-12-12-12-----------
------------------------------------------------------------------------------
------------------------------------------------------------------------------
------------------------------------------------------------------------------
------------------------------------------------------------------------------
------------------------------------------------------------------------------

submitted by:  iceiand@aol.com 


PjPjPjPjPjPjPjPjPjPjPjPjPjPjPjPjPjPjPjPjPjPjPjPjPjPjPjPjPjPjPjPjPjPjPjPjPjPjPj


Let Me Sleep (It's Christmas Time)

Riff I:

---5--3-h-5-p-3----------------------------------|
------------------3---5^hf-3----------3----------|
--------------------------------------0----------|
-------------------------------------------------|
-------------------------------------------------|
-------------------------------------------------|


Cold wind blows on the soles of my feet
Heaven knows nothin' of me
I'm lost.....without hope (nowhere to go?)

For the "I'm lost" part:

Riff II:

---5--3-h-5-p-3----------------------------------|----------------------------
------------------3---5^hf-3-------3----3--------|----------------------------
-------------------------------4------4----------|----------------------------
-------------------------------------------------|----------------------------
-------------------------------------------------|----------------------------
-------------------------------------------------|----------------------------

After "without hope":

Riff III:

--10---8-p-7-------7-------7-------7-----------7-------------------------|----
-----------------------------------------------8-------------------------|----
---------------7-------7-------7-------7---7-------7------(3times)-------|----
---------------------------------------0---------------------------------|----
-------------------------------------------------------------------------|----
-------------------------------------------------------------------------|----

Fourth time:

Riff IV:

---5--3-h-5-p-3---------------|---------3---0--------------3---2---------|----
------------------3---3---3---|-----------------1---3--3-----------3-----|----
----------------------2---2---|-----0---------------2--2---------------2-|----
----------------------0---0---|-----2---------------0--0-----------------|----
------------------------------|-----3------------------------------------|----
------------------------------|------------------------------------------|----
                            oh when I   was a       kid         oh   how

--------3---0--------------3---2---------|-------3---0-------3/----------|----
----------------1---3--3-----------3-----|---------------1---3/----3-----|----
----0---------------2--2---------------2-|---0---------------------0-----|----
----2---------------0--0-----------------|---2---------------------------|----
----3------------------------------------|---3---------------------------|----
-----------------------------------------|-------------------------------|----
  magic it seemed               oh please   let me sleep it's x-mas time


After the second chorus:

Riff V:

-----------------------------------|------------------------------------------
---6---6-p-5-p-3---3---3---2---3---|------------------------------------------
-------------------0---0---2---4---|------------------------------------------
-----------------------------------|------------------------------------------
-----------------------------------|------------------------------------------
-----------------------------------|------------------------------------------

submitted by bmojica@uclink2.berkeley.edu/MamboChkn@aol.com


PjPjPjPjPjPjPjPjPjPjPjPjPjPjPjPjPjPjPjPjPjPjPjPjPjPjPjPjPjPjPjPjPjPjPjPjPjPjPj

Long Road

Verse 1 (strum D several times)

I cannot say
Without you something's missing...
I cannot say

Pre Chorus

G

Oh, the hands of dawn in his heart

                            D
And their face is falling down


Down, down, down...


Chorus

Em                      A
I have wished for so long...

D
Now I wish for you again


Verse 2 (D several times again)

Will I walk the long road?
I cannot say 
There's no need to say goodbye


Pre Chorus 

G
Oh, the pressure's building

                         D
All the memories going round


Round, round, round...

Chorus

Em                      A
I have wished for so long...

                    D
Now I wish for you again


Bridge

C
And the wind keeps blowin'

G                            D
And the sky keeps turning grey

C                 G
And the sun is set 

    D
The sun won't never rise again


Chorus (X2)

Em                      A
I have wished for so long...

                    D
Now I wish for you again

Em                      A
I have wished for so long

                    D
Now I wish for you today

D
Will I walk the long road? (3x)


PjPjPjPjPjPjPjPjPjPjPjPjPjPjPjPjPjPjPjPjPjPjPjPjPjPjPjPjPjPjPjPjPjPjPjPjPjPjPj

Lukin

Verse:

------------------------------------------------------------------------------
------------------------------------------------------------------------------ 
---9-9-9-9-9--\---7----9-9-9-9-9-\---5----------------------------------------
---9-9-9-9-9--\---7----9-9-9-9-9-\---5----------------------------------------
---7-7-7-7-7--\---5----7-7-7-7-7-\---3----------------------------------------
------------------------------------------------------------------------------

Chorus:

------------------------------------------------------------------------------
------------------------------------------------------------------------------
---9-9-9-9-9-9---7-7-7-7-7--5-5-5-5-5--x-5-5-5---5-5-5------------------------
---9-9-9-9-9-9---7-7-7-7-7--5-5-5-5-5--x-5-5-5-x-5-5-5------------------------
---7-7-7-7-7-7---5-5-5-5-5--3-3-3-3-3--x-3-3-3-x-3-3-3------------------------
------------------------------------------------------------------------------

Fill:

------------------------------------------15~-------15~------15~--------------
---12~--12~--12~--12~-------12--------12------12------------------------------
-------------------------------  2nd -----------------------------------------
------------------------------- verse ----------------------------------------
------------------------------------------------------------------------------
------------------------------------------------------------------------------

Submitted by:  icelandev@aol.com


PjPjPjPjPjPjPjPjPjPjPjPjPjPjPjPjPjPjPjPjPjPjPjPjPjPjPjPjPjPjPjPjPjPjPjPjPjPjPj

Outta My Mind

The whole song is improve on the following pattern:

-----------------|------------------------------------------------------------
-----------------|------------------------------------------------------------
-----------------|------------------------------------------------------------
--6-6-6-6-4-4-4-4|------------------------------------------------------------
-4---4---2---2---|------------------------------------------------------------
-----------------|------------------------------------------------------------

Submitted by:  Mike Baker


PjPjPjPjPjPjPjPjPjPjPjPjPjPjPjPjPjPjPjPjPjPjPjPjPjPjPjPjPjPjPjPjPjPjPjPjPjPjPj


State Of Love And Trust 


---------------------------------------------------------------------------|--
--10----10---r---r---r----5--5--5------------------------------------------|--
--10----10---a---a---a----5--5--5------------------------------------------|--
--10----10---k---k---k----7--7--7---7--7-----------------------------------|--
--8-----8----e---e---e----7--7--7---7--7-----------------------------------|--
--------------------------5--5--5---5--5-----------------------------------|--

Start out in F - get the rake rhythm down - then move to A

--------------------------------------|------------------------------------|--
--------------------------------------|------------------------------------|--
------------10----10--------7/\-7-5---|-------10----10-------7/\5--7--5----|--
--------10-----10----10-10----------7-|----10----10----10-10---------------|--
--8--8--------------------------------|--8---------------------------------|--
--------------------------------------|------------------------------------|--
      State of love and trust is a 

This is where the lyrics start.  Mike plays this part while Stone sits 
back and jams the F to A pattern.  Don't take this part of the tab to 
heart.  This is where you should do some improvisation and a little 
jamming of your own.  If you listen to this live, you'll get the picture. 

----------------------------|----------------------------------------------|--
--10-r-10-r-10-----5-5------|--10--10-r--r--r--5--5--5--5-5---------r-r-r--|--
--10-a-10-a-10-----5-5------|--10--10-a--a--a--5--5--5--5-5---5-5-5-a-a-a--|--
--10-k-10-k-10-----7-7--7---|--10--10-k--k--k--7--7--7--7-7---5-5-5-k-k-k--|--
--8--e-8--e-8------7-7--7---|--8---8--e--e--e--7--7--7--7-7---3-3-3-e-e-e--|--
-------------------5-5--5---|------------------5--5--5--5-5----------------|--
 Smell that on my hands-ands...  And I listen for the 

Here is the chord pattern for the chorus:  F A C G A B C D

---------------------------------------------------------------------------|--
-----------------r-r-r-----------------------------------------------------|--
-------------2-2-a-a-a--4-4-4-4-4--5-5-5-5-5--7-7-7-7-7--------------------|--
--5-5-5-5-5--2-2-k-k-k--4-4-4-4-4--5-5-5-5-5--7-7-7-7-7--------------------|--
--5-5-5-5-5--0-0-e-e-e--2-2-2-2-2--3-3-3-3-3--5-5-5-5-5--------------------|--
--3-3-3-3-3----------------------------------------------------------------|--
voice inside my head - nothing - I'll do this one myself 

Then there is a small variagion to the chorus.  The following tab will 
show the change in the chords directly above.  The second variation of 
the chorus is as follows:  F A C G A G F D


---------------------------------------------------------------------------|--
-----------------r-r-r-----------------------------------------------------|--
-------------2-2-a-a-a--------------------------7-7-7-7--------------------|--
--5-5-5-5-5--2-2-k-k-k--5-5-5-5-5-5-5--3-3-3-3--7-7-7-7--------------------|--
--5-5-5-5-5--0-0-e-e-e--5-5-5-5-5-5-5--3-3-3-3--5-5-5-5--------------------|--
--3-3-3-3-3-------------3-3-3-3-3-3-3--1-1-1-1-----------------------------|--
 from both sides of ....  

There is the variation of the chorus.  Simple. 

Myself!  Myself! 
YEAH!  YEAH! 

--------------------------------------------|------------------------------|--
--------------------------------------------|------------------------------|--
--12h-14-14-14-14-12------------------------|------------------------------|--
---------------------14-14--14--14-12-------|------------------------------|--
--------------------------------------15-12-|-15-15-15-14-15-14------------|--
--------------------------------------------|------------------------------|--
                                              This part is the variation
                                              that Mike throws in.  


Submitted by:  bsteele@asu.edu


PjPjPjPjPjPjPjPjPjPjPjPjPjPjPjPjPjPjPjPjPjPjPjPjPjPjPjPjPjPjPjPjPjPjPjPjPjPjPj

Wash

Verse:

 Gmin

-3--3-3-3-
-3--3-3-3-
-3--3-3-3-
-5--5-3-5-  etc.
-5--------
-3--------

Chorus:

 Bb               Gmin

-6-------------6--3-
-6-------------6--3-
-6-6-6---------6--3-
-7-7-7-7-7-7-7-7--3-  etc...
-8-8-8-8-8-8-8-8--5-
-8-8-8-8-8-8-8-8--5-
-6-6-6-6-6-6-6-6--3-
                  
                  Wash my love...


PjPjPjPjPjPjPjPjPjPjPjPjPjPjPjPjPjPjPjPjPjPjPjPjPjPjPjPjPjPjPjPjPjPjPjPjPjPjPj

Yellow Ledbetter

Intro:

----------|-----------|-9p7-----|-7-9-|-7\5-|-5-----|-5h7-------|-------------
----------|-9---------|-----7---|-7-7-|-7\5-|-5-----|-----5h7---|-------------
--------9-|-9h11------|-------8-|-8-8-|-8\6-|-6h7p6-|-----------|-------------
---9----9-|-9---h11---|---------|-----|-----|-------|-----------|-------------
---9h11---|-----------|---------|-----|-----|-------|-----------|-------------
-0--------|---------7-|---------|-----|-----|-------|---------0-|-------------


-12/14-----------|------------------------------------------------------------
-12/14-12-14-----|------------------------------------------------------------
-------------13\-|------------------------------------------------------------
-----------------|------------------------------------------------------------
-----------------|------------------------------------------------------------
-----------------|------------------------------------------------------------


----------|-9-9------|-----9-9-7--9-9-|-7\5-|-----5-|-------5---|-12/-|-------
----------|-9-9------|---7-7-7-7--7-7-|-7\5-|-------|-5h7p5-5---|-12/-|-------
--------9-|-9-9-11---|-8--------------|-8\6-|-6h7---|-----------|-----|-------
---9----9-|----------|----------------|-----|-------|-----------|-----|-------
---9h11---|----------|----------------|-----|-------|-----------|-----|-------
-0--------|--------7-|----------------|-----|-------|---------0-|-----|-------

The chords leading up to and during the solo are:  E B A E



Solo:

---------|------------------------|-------------------------------------------
---------|-------)--)--)(---------|-------------------------------------------
------9~-|-9-11-11-11-11-11p9h11~-|-------------------------------------------
-9h11----|------------------------|-------------------------------------------
---------|------------------------|-------------------------------------------
---------|------------------------|-------------------------------------------


--------------------------------------------|--)-----)(---------|-------------
--------------------------------------------|-12-12-12-12-----)-|-------------
--9-----------------------------------------|-------------13-11-|-------------
---11-9-----------------------------------*-|-------------------|-------------
--------11-9-7-9----7---7-9-7----7---7---10-|-------------------|-------------
----------------------9------------9---9----|-------------------|-------------

                      fast
-------------------|---------|-------------------|----------------------------
-------------------|---------|-------12----12-14-|----------------------------
-11-9-11-11~~~~~~~-|-11p9----|-13-------13-------|----------------------------
-------------------|------11-|-------------------|----------------------------
-------------------|---------|-------------------|----------------------------
-------------------|---------|-------------------|----------------------------

                    )(
-------------------14-14-12----12-14-12---12\-|--------------|----------------
-14p12-14p12-14p12----------14----------------|-------14-14~-|----------------
----------------------------------------------|-11h13--------|----------------
----------------------------------------------|--------------|----------------
----------------------------------------------|--------------|----------------
----------------------------------------------|--------------|----------------

                     fast
-------------------------------|----------------*-|-------------|-------------
-14-12-------------------------|----------------9-|-------------|-------------
-------13-11-13-11-13-11----9~-|-11-9----9-11-9---|-9----9-11-9-|-------------
-------------------------11----|------11----------|---11--------|-------------
-------------------------------|------------------|-------------|-------------
-------------------------------|------------------|-------------|-------------


------7---9-|-7h9p7h9p7h9p7h9p7h9p7h9p7h9p7h9\-|------------------------------
-7/9----9---|----------------------------------|------------------------------
------------|----------------------------------|------------------------------
------------|----------------------------------|------------------------------
------------|----------------------------------|------------------------------
------------|----------------------------------|------------------------------

The chords after the solo are still: E B A E
Until it changes to, ("I don't wanna (stay)?...." part), play this:  

E B A
E B A(base lead during A: Ab Gb)
E B A
E B A
Eb E B
Eb E A
Eb E B
Eb E A(To outro)


Outro:
                                                                 ? ? ? ?
-------|----------|-----------|-9p7-----|-9-9-|-7\5-|-5-----|-5-5-5-5---|-----
-12/19-|----------|-9---------|-----7---|-7-7-|-7\5-|-5-----|-5-5-5-5---|-----
-------|--------9-|-9h11------|-------8-|-8-8-|-8\6-|-6h7p6-|-6-6-6-6---|-----
-------|---9----9-|-9---h11---|---------|-----|-----|-------|-7-7-7-7---|-----
-------|---9h11---|-----------|---------|-----|-----|-------|-7-7-7-7---|-----
-------|-0--------|---------7-|---------|-----|-----|-------|-5-5-5-5-0-|-----


-12/14-----------|------------------------------------------------------------
-12/14-12-14-----|------------------------------------------------------------
-------------13\-|------------------------------------------------------------
-----------------|------------------------------------------------------------
-----------------|------------------------------------------------------------
-----------------|------------------------------------------------------------


----------|-----------|-9p7-------12/19-|-----|--7p5------|-------|-----------
----------|-9---------|-7----5/7--------|-----|--5----3/5-|-------|-----------
--------9-|-9h11------|-----------------|-----|-----------|-------|-----------
---9----9-|-9---h11---|-----------------|-----|-----------|-------|-----------
---9h11---|-----------|-----------------|-----|-----------|-------|-----------
-0--------|---------7-|-----------------|-7\5-|-----------|-7\--0-|-----------

      Harmonics         
                   ?
----12--------17----17-|------------------------------------------------------
-12----12--------15----|------------------------------------------------------
-----------------------|------------------------------------------------------
-----------------------|------------------------------------------------------
-----------------------|------------------------------------------------------
-----------------------|------------------------------------------------------

                                                         Harmonics

----------|-----------|-9-9-7---9-9---7p5--5h7p5-------------12---|-----------
----------|-9---------|-7-7-7---7-7---5-----------5-5-----12------|-----------
--------9-|-9h11------|---------------------------6-7-------------|-----------
---9----9-|-9---h11---|---------------------------7-7-------------|-----------
---9h11---|-----------|-------------------------------------------|-----------
-0--------|---------0-|-------------------------------0-----------|-----------

Submitted by:  kmcollier@csupomona.edu

PjPjPjPjPjPjPjPjPjPjPjPjPjPjPjPjPjPjPjPjPjPjPjPjPjPjPjPjPjPjPjPjPjPjPjPjPjPjPj

comments
We did not receive enough feedback on this tab! Please rate:
print report bad tab
1 2 3 4 5
1 comment total.
0 reply
salazar wrote on April 29 2008, 10:41 pm

looks like ujust grabbed a bunch of everybody elses tabs

I want to post or [tab]
guest
You may want to rate the tab now too:
select rating
Please do not post tabs as comments. Select "correction" instead!