Oops, an error
Loading. Please wait.

Ten Tab

ver1
ver1

Album

Whole song

Interactive

More versions @911Tabs.com
57,226 views 52 this week
7 commentsread comments
1 2 3 4 5
worth learning
x 9
Autoscroll
+/-
esc
set tempo
stop
WARNING: You are trying to view
                                    content from Ultimate-Guitar.com
                                    in an unauthorized application,
                                    which is prohibited.

                                    Please use an official Ultimate
                                    Guitar Tabs application for iPhone,
                                    iPad or Android to access legitimate
                                    chords, guitar, bass, and drum tabs
                                    from Ultimate-Guitar.com database.

                                    Type "ultimate guitar tabs" in Apple
                                    App Store's or Android Market's
                                    search to find the application.
PjPjPjPjPjPjPjPjPjPjPjPjPjPjPjPjPjPjPjPjPj
Pj                                      Pj
Pj           1991 album 'Ten'           Pj
Pj                                      Pj 
PjPjPjPjPjPjPjPjPjPjPjPjPjPjPjPjPjPjPjPjPj
Pj   
Pj       From 'Ten':            
Pj                              
Pj        Once                  
Pj        Evenflow              
Pj        Alive                 
Pj        Black                 
Pj        Jeremy                
Pj        Oceans                
Pj        Porch                 
Pj        Garden                
Pj        Release               
Pj                              
Pj                              
Pj    
jPjPjjPjPjPjPjPjPjPjPjPjPjPjPjPjPjPjPjPjP

Once

Intro (played with heavy distortion)

---3-----3--3---3---1-----1--1---1---1--1--1--1--1--1--0-----0--0---1---1-----
---3-----3--3---3---3-----3--3---3---3--3--3--3--3--3--3-----3--3---3---3-----
---2-----2--2---2---2-----2--2---2---2--2--2--2--2--2--2-----2--2---2---2-----
---0-----0--0---0---0-----0--0---0---0--0--0--0--0--0--0-----0--0---0---0-----
------------------------------------------------------------------------------
------------------------------------------------------------------------------

---3---3---1--1--1--1--1--1-----1----1----1----1------------------------------
---3---3---3--3--3--3--3--3-----3----3----3----3------------------------------
---0---0---2--2--2--2--2--2-----2----2----2----2------------------------------
---0---0---0--0--0--0--0--0-----0----0----0----0------------------------------
-----------------------------------------------------5-\-3-/-5----------------

------------------------------------------------------------------------------
------------------------------------------------------------------------------
---0-h-2----2---2-h-3-p-2-h-3-/-7-\-3-h-2---3-p-2-------0---------------------
----------------------------------------------------2-------------------------
------------------------------------------------------------------------------
------------------------------------------------------------------------------

   (repeat the last line of tab above three times)

------------------------------------------------------------------------------
------------------------------------------------------------------------------
---2---2------2------2---2------2---2---5---5---2---2-------------------------
------------------------------------------------------------------------------
------------------------------------------------------------------------------
------------------------------------------------------------------------------

Verse

------------------------------------------------------------------------------
---0-h-2-p-0-h-3----2-h-3-p-2-------------------------------------------------
------------------------------------------------------------------------------
------------------------------------------------------------------------------
------------------------------------------------------------------------------
------------------------------------------------------------------------------

   (repeat the following throught the rest of the verse)

------------------------------------------------------------------------------
------------------------------------------------------------------------------
---0-h-2-p-0-h-3----2-h-3-p-2---x--x--x--2---9-\--x--x------------------------
------------------------------------------------------------------------------
------------------------------------------------------------------------------
------------------------------------------------------------------------------

Pre-Chorus'

   A5
------------------------------------------------------------------------------
------------------------------------------------------------------------------
---2----------------------------2-h-3-p-2-h-3-p-2-h-3--x--x-------------------
------------------------------------------------------------------------------
---0--------------------------------------------------------------------------
------------------------------------------------------------------------------

(A5 is sustained in the background by guitar 2.  This fill is repeated 
 throughout the pre-chorus. "Back street lover on the side of the ....")

------------------------------------------------------------------------------
------------------------------------------------------------------------------
--3-------------------3---3---0-----------------------------------------------
--3-------------------3---3---0-----------------------------------------------
--1-------------------1---1---------------------------------------------------
------------------------------------------------------------------------------

Chorus
---3----3---3---3-------1------1----1----1---1----1------0-----0--------------
---3----3---3---3-------3------3----3----3---3----3------3-----3--------------
---0----0---0---0-------0------0----3----3---3----3------3-----3--------------
---0--------------------------------------------------------------------------
------------------------------------------------------------------------------
------------------------------------------------------------------------------

---3----3---3----3------1----1----1----1--1----1-------0-----0----------------
---3----3---3----3------3----3----3----3--3----3-------3-----3----------------
---0----0---0----0------0----0----3----3--3----3-------3-----3----------------
------------------------------------------------------------------------------
------------------------------------------------------------------------------
------------------------------------------------------------------------------
(repeat the above through the chorus)

solo

Outro
---3------3--3----------------------------0----0--0-----0----0--0--0--0--0--0-
---3------3--3----------------------------6----6--6--/--8----8--8--8--8--8--8-
---0------0--0-----6------5-------0-------7----7--7--/--9----9--9--9--9--9--9-
---0------0--0--------------------0-------------------------------------------
------------------------------------------------------------------------------
------------------------------------------------------------------------------

(repeat twice)

------------------------------------------------------------------------------
---3-----3--3--8-/-10------8-------------3------3--3--8/10--------------------
---0-----0--0---------------------0------0------0--0----------------0---------
---0-----0--0---------------------0------0------0--0----------------0---------
------------------------------------------------------------------------------
------------------------------------------------------------------------------

  (pause while Eddie sings yeah,yeah,yeah,yeah)

-------------------------------------------0---0---0--------0------3----------
-------------------------------------------6---6---5--------5------3----------
-------------------------------------------7---7---5--------5------0----------
-------------------------------------------------------------------0----------
-------------------------------------------------------------------2----------
-------------------------------------------------------------------3----------


PjPjPjPjPjPjPjPjPjPjPjPjPjPjPjPjPjPjPjPjPjPjPjPjPjPjPjPjPjPjPjPjPjPjPjPjPjPjPj

Evenflow


riff 1
------------------------------------------------------------------------------
------------------------------------------------------------------------------
----------7-7-7-7-7-7------7-7-7-7-7-7-7------7-7-7-7-7-7-7-------------------
----------7-5-5-5-5-5------7-7-7-7-7-7-7------7-7-7-7-7-7-7-------------------
--------5-5-5-5-5-5-5------5-5-5-5-5-5-5------5-5-5-5-5-5-5-------------------
----5-8----------------5-8----------------5-8---------------------------------

riff 2
------------------------------------------------------------------------------
------------------------------------------------------------------------------
----------------7-------------------------------------------------------------
----------------7-------------------------------------------------------------
----5-3-0-3---5-5-------------------------------------------------------------
------------3-----------------------------------------------------------------

riff 1 gets repeated through the verse 
until right before the chorus where you play riff 2.

Chorus:
rhythm:

------------------------------------------------------------------------------
------------------------------------------------------------------------------
-7----3--------------------------7-----5--------------------------------------
-7----3-(let ring)---------------7-----5--------------------------------------
-5----1--------------------------5-----3--------------------------------------
------------------------------------------------------------------------------
even flow, thoughts arrive like  butterflies
(and so on, repeated for each line in the chorus)

lead
------------------------------------------------------------------------------
------------------------------------------------------------------------------
--12-11---------------------------12-11---------------------------------------
--------12-8-(whammy)---------------------12-10-(whammy)----------------------
------------------------------------------------------------------------------
------------------------------------------------------------------------------
   even flow  thoughts arrive like buttterflies
(again repeated until the end part of the chorus)

either way you have to play this riif in between phrases of the chorus
------------------------------------------------------------------------------
------------------------------------------------------------------------------
------------------------------------------------------------------------------
------------------------------------------------------------------------------
--3-3-3-3-3-3-3-3-3-3-3-3/5-5-------------------------------------------------
------------------------------------------------------------------------------
and this riff at the end.
------------------------------------------------------------------------------
------------------------------------------------------------------------------
--7----5-------5----7-------7----5--------------------------------------------
--7----5-------5----7-------7----5--------------------------------------------
--5----3-------7----5-------5----3-----3-3-3-3-3/5-5-5-5-5-5-5\3-0------------
------------------------------------------------------------------------------
life  again   life again   life  again   (when appropriate, repeat a few
(or whatever the lyrics are)               times)

then the imfamous interlude where everything quiets down
------------------------------------------------------------------------------
---------------5--------------------------------------------------------------
-------5-----5---7p5----------------------------------------------------------
--/5-7---5-7------------------------------------------------------------------
------------------------------------------------------------------------------
------------------------------------------------------------------------------
 repeated when necessary
 p=pulloff
 / slide up
\ slide down

submitted by:  RichNut@uiuc.edu


PjPjPjPjPjPjPjPjPjPjPjPjPjPjPjPjPjPjPjPjPjPjPjPjPjPjPjPjPjPjPjPjPjPjPjPjPjPjPj

Alive

Main Riff:

----||-----------------------|----------------------------|-------------------
----||-----------------------|----------------------------|-------------------
----||--0-0-2----------------|--2-0-2---------------------|-------------------
-7\-||--0-0-2-------7-9~--7--|--2-0-2-------7-9~-7-9^-7-5-|-------------------
----||--0-0-0--5/7-----------|--0-0-0--5/7----------------|-------------------
----||-----------------------|----------------------------|-------------------


This little rhythm gets played right before the chorus and beginning
verse.

--------------------|---------------------------------------------------------
--------------------|---------------------------------------------------------
-10-10-10-----------|---------------------------------------------------------
-10-10-10--10---10--|---------------------------------------------------------
--8--8--8--10---10--|---------------------------------------------------------
------------8----8--|---------------------------------------------------------

Chorus:         E G D A

------------------------------|-----------------------------------------------
------------------------------|-----------------------------------------------
------------7-7---------------|-----------------------------------------------
--2-2--5-5--7-7--7--7-7-7-7-7-|-----------------------------------------------
--2-2--5-5--5-5--7--7-7-7-7-7-|-----------------------------------------------
--0-0--3-3-------5--5-5-5-5-5-|-----------------------------------------------

Solo:

Here's the solo as appeared in a guitar mag in may 92.
        hope it helps......

---/\----------------------------------------------|--------------------------
-15--(15)12----/\----------------------------------|---/---/----/\------------
------------14---(14)12----12----12-12-14^12----12-|-14--14--14---(14)12------
------------------------14----14-------------14----|--------------------------
---------------------------------------------------|--------------------------
---------------------------------------------------|--------------------------

      v^v^v^ w/wah-wah
------------------|--------12------/-12---------------------------------------
-------------/-12-|---/-12----12-15-----15^12--12--/\-------------------------
-14-12-----14-----|-14-----------------------14--14--(14)^12-14-14-12-14-12---
------------------|-----------------------------------------------------------
------------------|-----------------------------------------------------------
------------------|-----------------------------------------------------------

                              v^v^v^             /\
-----------------------------------------|-----17-(17)-15----------|----------
-------------------------------------0-0-|---/-----------17--------|----------
-------------------------------------0-0-|-14----------------14^16-|----------
---14-12---------------------/-----------|-------------------------|----------
---------14-13-12-10-12-10-12------------|-------------------------|----------
-----------------------------------------|-------------------------|----------

                 v^v^     v^v^v^        v^v^v^
-----------15----------------------|---------------------|--------------------
-15-17---/---17-----------------0--|---/---------/\------|--------------------
-------14------14----14-12------0--|--2---------2-(2)-0--|--------------------
-----------------------------------|---------------------|--------------------
-----------------------------------|---------------------|--------------------
-----------------------------------|---------------------|--------------------

                     /\                v^v^v^ 
------------0-3-0-3-5-(5)-12-------|---------------------------------|--------
--/-0-3-0-3------------------15-12-|--/--------------3-3---5-3---3---|--------
-2---------------------------------|-2-------2-0-2^4-----4-----4-----|--------
-----------------------------------|---------------------------------|--------
-----------------------------------|---------------------------------|--------
-----------------------------------|---------------------------------|--------

    v^v^v^         /\
------------5-7-5-5-(5)^3-5-3----/-|-----------------------------------|------
---5------5-------------------5-5--|---/-12----------------------------|------
-----------------------------------|-14-----14-12-------12-12-14-12----|------
-----------------------------------|--------------14-14-------------14-|------
-----------------------------------|-----------------------------------|------
-----------------------------------|-----------------------------------|------

                             _________                                /
----------------------------/---------\----|---/-12-12-12---12-15-12-15-|-----
---------------------------/--12--12---\---|-15-----------15------------|-----
----12-12-14-12-14-12-14-14---------14(14)-|----------------------------|-----
-14----------------------------------------|----------------------------|-----
-------------------------------------------|----------------------------|-----
-------------------------------------------|----------------------------|-----


-12-12----/-15-15---/-15-15-|-14--/-14-14---/-14-14-12---/-12-12---/----------
--------18--------18--------|---17--------17-----------15--------15-----------
----------------------------|-------------------------------------------------
----------------------------|-------------------------------------------------
----------------------------|-------------------------------------------------
----------------------------|-------------------------------------------------


-12-12-12-|---------/-12-12---/-12-12-12-----/-15-15--/-|-12-15^12--12-15-----
----------|-15^12-15--------15-------------18-------18--|---------15----------
----------|---------------------------------------------|---------------------
----------|---------------------------------------------|---------------------
----------|---------------------------------------------|---------------------
----------|---------------------------------------------|---------------------

           /    ^v^v^        /
-12-15-12-15----15---------|-15--15-12-15-12-12---/-12------------------|-----
---------------------------|--------------------15-----15^12---/-12---/-|-----
---------------------X-X-X-|---------------------------------14-----14--|-----
---------------------------|--------------------------------------------|-----
---------------------------|--------------------------------------------|-----
---------------------------|--------------------------------------------|-----

     /^\                                                /
----/---\-----------------------------------------|----/-12-------------------
---/-----\-----------------------12--12-12-12-12--|---/-----15^12-------------
-14------(14)12---12-14-12-14-15-12--12-12-12-12--|-14------------------------
----------------14--------------------------------|---------------------------
--------------------------------------------------|---------------------------
--------------------------------------------------|---------------------------

      /            /            /            /            /            /
-----/-12---------/-12---------/-12---------/-12---------/-12---------/-------
----/----15^12---/----15^12---/----15^12---/----15^12---/----15^12---/--------
--14-----------14-----------14-----------14-----------14-----------14---------
------------------------------------------------------------------------------
------------------------------------------------------------------------------
------------------------------------------------------------------------------

     /             /            /                      ^v^v          ^v^v
----/-|-12--------/-12---------/-12---------------|---------------------------
---/--|---15^12--/----15^12---/----15^12-----0----|-14-12---------14-12-------
-14---|--------14-----------14---------------0-14-|-14-12---------14-12-------
------|-------------------------------------------|-------14-12---------14-12-
------|-------------------------------------------|------------14----------14-
------|-------------------------------------------|---------------------------

      ^v^v            /              /           /          /        /
---------------------/-----12-12----/--12-12----/--15-|----/--15----/---------
----------12---12---/---12-12-12---/---12-12---/------|-15/---15-15/----------
----14----12---12-14-------------14----------14-------|-14-------14-----------
------------14----------------------------------------|-----------------------
------------------------------------------------------|-----------------------
------------------------------------------------------|-----------------------

        /        /        /----------\
-15----/--15----/--15----/--15----|---\---------------------------------------
-15-15/---15-15/---15-15/------15-|-15-\--------------------------------------
----14-------14-------14-------14-|-14(14)12----12-14-14-14---14-14-14--------
----------------------------------|----------14-------------------------------
----------------------------------|-------------------------------------------
----------------------------------|-------------------------------------------

                                                                 / 
----0---0-|-0---0-0-3-0-0-0-5-0-0-0-3-0-0-0--|-0---0-0-3-0-0-0-15--12-12------
--3^5-5-5-|-3^5-5-5-5-5-5-5-5-5-5-5-5-5-5-5--|-3^5-5-5-5-5-5-5----------------
----------|----------------------------------|--------------------------------
----------|----------------------------------|--------------------------------
----------|----------------------------------|--------------------------------
----------|----------------------------------|--------------------------------

    /      /         /          /         /         /
---/-12---/-12-12-|-15-12-12---/-12-12---/-12-12---/-12-------------|---------
-15-----15--------|----------15--------15--------15-----17^15-17-17-|---------
------------------|-------------------------------------------------|---------
------------------|-------------------------------------------------|---------
------------------|-------------------------------------------------|---------
------------------|-------------------------------------------------|---------

   /             /                          /           /       
-17--17--15-17-15---------------------|-17-17-15-17-15-----------------|------
--------------------17-15----15-17^15-|-----------------17-15----15----|------
--------------------------16----------|-----------------------16----16-|------
--------------------------------------|--------------------------------|------
--------------------------------------|--------------------------------|------
--------------------------------------|--------------------------------|------

                 /            /    /   /\              /
----------------/----12------/----/---/--\------|-----/--12-------------------
---------------/--12----12-15---15--15----15^12-|----/-----15^12--------------
-14-12----12-14---------------------------------|--14-------------------------
--------14--------------------------------------|-----------------------------
------------------------------------------------|-----------------------------
------------------------------------------------|-----------------------------


----/-12-15^12-----/-12---------/-12---------/-12----------|------------------
---/--------------/----15^12---/----15^12---/----15^12-----|------------------
-14-------------14-----------14-----------14----------14---|------------------
-----------------------------------------------------------|------------------
-----------------------------------------------------------|------------------
-----------------------------------------------------------|------------------

     /            /                 ^v^v^v^         /  ^v^v^v    /     /
----/------------/---------------------------|-----/------------/-----/--|----
---/--12-12-12--/--12------------------------|-12-/---12-----14/---15/---|----
-14-----------14------15-14-12----12---------|-14-----14-----16----17----|----
-------------------------------14------------|---------------------------|----
---------------------------------------------|---------------------------|----
---------------------------------------------|---------------------------|----

      /          /       / ^v^v^v^v              /     /    /   
-----/----------/-------/------------X-X--|-----/-----/--15/--15-|------------
--17/--------17/-----17/------------------|--17/---19/---18---18-|------------
--19---------19------19-------------------|--19----21------------|------------
------------------------------------------|----------------------|------------
------------------------------------------|----------------------|------------
------------------------------------------|----------------------|------------

     / ^v^v^v^v    /    /   /\               v^v^v^v^v^v^
--17/-------------/----/---/--\-----------|-----------------------------------
--20------------20---20--20---(20)-17-20--|-17-----------17-------------------
------------------------------------------|-----------------------------------
------------------------------------------|-----------------------------------
------------------------------------------|-----------------------------------
------------------------------------------|-----------------------------------

submitted by: cobain@salmon.maths.tcd.ie


PjPjPjPjPjPjPjPjPjPjPjPjPjPjPjPjPjPjPjPjPjPjPjPjPjPjPjPjPjPjPjPjPjPjPjPjPjPjPj

Black


Verse:

    E                                   E

----7------7------:--9-------9------:---7--12-----7--7---7--------------------
----9------9--10--:--10------10--9--:---9---------7--7---9--------------------
----7------7------:--9-------9------:---7---------7--7---7--------------------
----9------9------:--9-------9------:---9---------7--7---9--------------------
----7------7------:--X-------X------:---7---------X--X---7--------------------
---(0)----(0)-----:--9-------9------:--(0)--------7--7--(0)-------------------


   A                    E                                E

---5---9----5---5--7-:--7--12--7-----:--9-----9------:---7--------------------
---5--------5---5--7-:--9------9--10-:--10----10--9--:---9--------------------
---6--------6---6--7-:--7------7-----:--9-----9------:---7--------------------
---7--------7---7--7-:--9------9-----:--9-----9------:---9--------------------
---7--------7---7--X-:--7------7-----:--X-----X------:---7--------------------
---5--------5---5--7-:-(0)----(0)----:--9-----9------:--(0)-------------------


Pre-Chorus:

   C      C       Emin

-------:------:-------:---2---:----------------------------------------------- 
---1---:--1---:-------:-------:-----------------------------------------------
-------:------:-------:-------:-----------------------------------------------
---2---:--2---:---2---:---2---:-----------------------------------------------


 

Chorus:

   Emin      D         C


--------:----2----:-----------------------------------------------------------
--------:----3----:----1------------------------------------------------------
--------:----2----:-----------------------------------------------------------
----2---:---------:----2------------------------------------------------------
----2---:----X----:----3------------------------------------------------------
--------:----X----:----3------------------------------------------------------

submitted by:  UHLNPYA@OAK.GROVE.IUP.EDU
                

PjPjPjPjPjPjPjPjPjPjPjPjPjPjPjPjPjPjPjPjPjPjPjPjPjPjPjPjPjPjPjPjPjPjPjPjPjPjPj

Jeremy

Intro:
                         H*       H*
----------------------I----------------------I--------------------------I-----
----------------------I----------------------I--------------------------I-----
----------------------I-----------12---------I--------------------------I-----
---------------7----5-I--12-------12---------I-------------7----5-------I-----
--0---5H7--0-----0----I--12------------------I--0--5H7--0----0----------I-----
----------------------I----------------------I--------------------------I-----

   H*     H*
----------------------I-------------------------------------------------------
----------------------I-------------------------------------------------------
----------------------I-------------------------------------------------------
--12------------------I-------------------------------------------------------
--12------12----------I-------------------------------------------------------
----------12----------I-------------------------------------------------------

Main Riff:
              At home, drawing pictures       of mountaintops...
---------------------I----------------------------I---------------------------
---------------------I----------------------------I---------------------------
---------------------I----------------------------I---------------------------
--------------7---5--I--------------7----------5--I---------------------------
---0--5H7--0----0----I---0--5H7--0-----0---5H7----I---------------------------
---------------------I----------------------------I---------------------------

                           Daddy didn't give attention
                   A       G/A            D/A
----------------I----------------------I------------------------------I-------
----------------I--10-------8----------I------------------------------I-------
----------------I--9--------7----------I---7--------------------------I-------
----------------I--7--------5----------I---4--------------------------I-------
----0--5H7--0---I--0--------0----------I---0------------0---5H7----0--I-------
----------------I----------------------I------------------------------I-------


               To the fact that mommy didn't care--->

 D/A      A                                         A       G/A
-------------------I-----------------------------I---------------I------------
----------2--------I-----------------------------I--10-------8---I------------
-7--------2--------I-----------------------------I--8--------7---I------------
-4--------2--------I-----------------------------I--7--------5---I------------
-0--------0--------I------------------0---5H7--0-I--0--------0---I------------
-------------------I-----------------------------I---------------I------------


King Jeremy the          wicked              ruled his world

  D/A           D/A      A
----------------------I-------------------I------------------------I----------
----------------------I----------2--------I------------------------I----------
---7------------------I--7-------2--------I------------------------I----------
---4------------------I--4-------2--------I------------------------I----------
---0-------0--5H7---0-I--0-------0--------I-------------0--5H7--0--I----------
----------------------I-------------------I------------------------I----------

Chorus:

 F               Dm   E   F    A
 Jeremy's spoken   cla-ass  today


Rhythm fill at end of line is:

----12--------------------I----------------12-----------I---------------------
---------12----------12---I---12h14p12----------12------I---------------------
----------------14--------I------------14-----------14--I---------------------
--------------------------I-----------------------------I---------------------
--------------------------I-----------------------------I---------------------
--------------------------I-----------------------------I---------------------

The chords during the end of the song repeat  F--G--A. (Sometimes Am)

The end riff is played on a twelve-string bass, as many people pointed out. 
Here it's arranged for a six-string guitar.

--------------------------I---------------------------I-----------------------
---------8-----------7----I---------3-----------5-----I-----------------------
-------9----------7-----7-I-------4----------5-----5--I-----------------------
--------------------------I---------------------------I-----------------------
---0----------0-----------I---0----------0------------I-----------------------
--------------------------I---------------------------I-----------------------


--------------------------I---------------------------I-----------------------
---------0-----------1----I--------0------------1-----I-----------------------
-------0----------2-----2-I------0-----------2-----2--I-----------------------
--------------------------I---------------------------I-----------------------
---0-----------0----------I---0----------0------------I-----------------------
--------------------------I---------------------------I-----------------------


Repeat the first three the second time through and end with:

                        H*      H*
--------------------------------------I---------------------------------------
-------------1------------------------I---------------------------------------
--------2------------------------12---I---------------------------------------
-------------------------12------12---I---------------------------------------
---0-------------0-------12-----------I---------------------------------------
--------------------------------------I---------------------------------------


submitted by:  sef@icbr.ufl.edu

PjPjPjPjPjPjPjPjPjPjPjPjPjPjPjPjPjPjPjPjPjPjPjPjPjPjPjPjPjPjPjPjPjPjPjPjPjPjPj

Oceans

Verse:

 D        C#sus4  C#         D            C#sus4
-2------------------------------------------9---------9-----------------------
-3------------7---6----------3--------------9---------9-----------------------
-2------------6---6----------2--------------11--------10----------------------
-0------------6---6----------4--------------11--11----11----------------------
--------------4---4-----------------------------------------------------------
------------------------------------------------------------------------------
 Hold on...  thread     The currents ...  Glide me towards 


 D       C#sus4  C#        D     C#sus4      C#    C
------------9----9------------------9--------9--------------------------------
-7----------9----9---------7--------9--------9-----5--------------------------
-7----------11---10--------7--------11-------10----5--------------------------
-7----------11---11--------7--------11-------11----5--------------------------
-5-------------------------5-----------------------3--------------------------
------------------------------------------------------------------------------
 you ...   left       And we're ... to dream of the next


Chorus

Cb5   C5  Cb5     C         Cb5     C5  Cb5   C
-8----8----8------8--8--8----8---8--8----8----8-----8-------------------------
-7----8----7------5--5--5----7---7--8----7----5-----5-------------------------
-5----5----5------5--5--5----5---5--5----5----5-----5-------------------------
------------------------------------------------------------------------------
------------------------------------------------------------------------------
------------------------------------------------------------------------------
                               Uh -uh

Cb5      C5   Cb5                C5 Cb5   C
-8---8---8-----8----8--8--8---8---8--8----8---8-------------------------------
-7---7---8-----7----7--7--7---7---8--7----5---5-------------------------------
-5---5---5-----5----5--5--5---5---5--5----5---5-------------------------------
------------------------------------------------------------------------------
------------------------------------------------------------------------------
------------------------------------------------------------------------------
   Uh -oh                    the next ...

Bridge

 D
------------------------------------------------------------------------------
-3-----3---3----3-----3---3--------3---3---3--3---3---3-----------------------
-2-----2---2----2-----2---2--------2---2---2--2---2---2-----------------------
-4-----4---4----4-----4---4--------4---4---4--4---4---4-----------------------
-5-----5---5------------------------------------------------------------------
------------------------------------------------------------------------------
 more...                  ooh...


  Cb5                    D
--8--8--8--8--8--8--8---------------------------------------------------------
--7--7--7--7--7--7--7----3----------------------------------------------------
--5--5--5--5--5--5--5----2----------------------------------------------------
-------------------------4----------------------------------------------------
------------------------------------------------------------------------------
------------------------------------------------------------------------------
                         ooh...

taken in sections the Hal Leonard Publication of "Pearl Jam Ten"


PjPjPjPjPjPjPjPjPjPjPjPjPjPjPjPjPjPjPjPjPjPjPjPjPjPjPjPjPjPjPjPjPjPjPjPjPjPjPj


Porch

Verse:

------------------------------------------------------------------------------
----------------x--5---5------------------------------------------------------
--2----2--------x--5---5-------0---0------------------------------------------
--2----2-----------5---5-------0---0------------------------------------------
--0----0----------------------------------------------------------------------
------------------------------------------------------------------------------
       what the f- is    this world


------------------------------------------------------------------------------
--2-----------5---5---5----5---0----------------------------------------------
--2---2-------5---5---5----5---0----------------------------------------------
--2---2-------5---5---5----5--------------------------------------------------
------0-----------------------------------------------------------------------
------------------------------------------------------------------------------
     running to      you  didn't

Chorus/Bridge:

------------------------------------------------------------------------------
------------------------------------------------------------------------------
------------------------------------------------------------------------------
--5-------5------5--5--5--5---7-------7--7--7--7---8------8-------------------
--5-------5------5--5--5--5---7-------7--7--7--7---8------8-------------------
--3-------3------3--3--3--3---5-------5--5--5--5---6------6-------------------



------------------------------------------------------------------------------
------------------------------------------------------------------------------
------------------------------------------------------------------------------
---7----7--7--7--7---5----5--5--5--5----7----7--7--7--7-----------------------
---7----7--7--7--7---5----5--5--5--5----7----7--7--7--7-----------------------
---5----5--5--5--5---3----3--3--3--3----5----5--5--5--5-----------------------



------------------------------------------------------------------------------
------------------------------------------------------------------------------
------------------------------------------------------------------------------
---8----8--8--8--8-----10-10-10-10-10-10-10-10--------------------------------
---8----8--8--8--8-----10-10-10-10-10-10-10-10--------------------------------
---6----6--6--6--6-----8--8--8--8--8--8--8--8---------------------------------


PjPjPjPjPjPjPjPjPjPjPjPjPjPjPjPjPjPjPjPjPjPjPjPjPjPjPjPjPjPjPjPjPjPjPjPjPjPjPj

Garden

Intro/Verse:

--2-0---0---------------------------------------------------------------------
----------0-----1---0---1-0---0-----------------------------------------------
--2---2-----2-0---2---2---0-2---2---------------------------------------------
------------------------------------------------------------------------------
------------------------------------------------------------------------------
------------------------------------------------------------------------------


--2-0---0-----------0---------------------------------------------------------
----------0-----1-------1-0---0-----------------------------------------------
--2---2-----2-0---2---2---0-2---2---------------------------------------------
------------------------------------------------------------------------------
------------------------------------------------------------------------------
------------------------------------------------------------------------------

--2-0---0---------------------------------------------------------------------
----------0-----1---0---1-----0-----------------------------------------------
--2---2-----2-0---2---2---0-2---2---------------------------------------------
------------------------------------------------------------------------------
------------------------------------------------------------------------------
------------------------------------------------------------------------------

--2-0---0---------------------------------------------------------------------
----------0-----1-------------------------------------------------------------
--2---2-----2-0---------------------------------------------------------------
------------------------------------------------------------------------------
------------------------------------------------------------------------------
------------------------------------------------------------------------------


Chorus is Am G

Bridge is A5 G5 F#5 D5

Solo is in Am pentatonic

transcription taken in parts from the Hal Leonard Publication "Pearl Jam Ten"


PjPjPjPjPjPjPjPjPjPjPjPjPjPjPjPjPjPjPjPjPjPjPjPjPjPjPjPjPjPjPjPjPjPjPjPjPjPjPj

Release

Main Riff:

-0-2-0-------0-------3-0------------------------------------------------------
-------3-------3--------------------------------------------------------------
---------2-------2------------------------------------------------------------
-0---------0-------0----------------------------------------------------------
------------------------------------------------------------------------------
------------------------------------------------------------------------------

Chords during verses are: D Bm C

Chords during Chorus are:  Dsus4 D Dsus2 with Wah
                           D Bm C without (guitar 2)



comments
print report bad tab
7 comments total. Showing first comments.
0 reply
Suburban Legend wrote on May 8 2002, 12:00 am

OH MY GOD!!!

0 reply
superman31801 wrote on February 15 2006, 09:52 am

sounds good bro!

0 reply
jman272 wrote on February 25 2006, 09:55 am

not correct

I want to post or [tab]
guest
You may want to rate the tab now too:
select rating
Please do not post tabs as comments. Select "correction" instead!