Oops, an error
Loading. Please wait.

Why Go Tab

ver2
ver2

Whole song

Interactive

More versions @911Tabs.com
14,883 views 45 this week
1 commentread comment
1 2 3 4 5
excellent!
x 5
Autoscroll
+/-
esc
set tempo
stop
Contributor
WARNING: You are trying to view
                                    content from Ultimate-Guitar.com
                                    in an unauthorized application,
                                    which is prohibited.

                                    Please use an official Ultimate
                                    Guitar Tabs application for iPhone,
                                    iPad or Android to access legitimate
                                    chords, guitar, bass, and drum tabs
                                    from Ultimate-Guitar.com database.

                                    Type "ultimate guitar tabs" in Apple
                                    App Store's or Android Market's
                                    search to find the application.
Ok, since no one else knows the REAL why go tab on UG, i'll post it, its perfect
i promise = P if you want anymore pj tabs that no one can tab for you message me and i'll do 
best = ) enjoy, from Rees


-|-----------|-----------|------------|------------|-----------|-------------|
-|-----------|-----------|------------|------------|-----------|-------------|
-|-----------|-----------|------------|------------|-----------|-------------|
-|-----------|-----------|------------|------------|-----------|-------------|
-|-----------|-----------|------------|------------|-----------|-------------|
-|-----------|-----------|------------|------------|-----------|-------------|
 Drums                    Bass and Drums

-|-------------------|-----------------------------------|--------------------|
-|-------------------|-----------------------------------|--------------------|
-|-9-----------9-----|-13------------13--13------13------|--------------------|
-|-9-----------9-----|-12------------12--12------12------|--------------------|
-|-7-----------7-----|-----------------------------------|--------------------|
-|-------------------|-----------------------------------|--------------------|
 G1

-|-------------------|-----------------------------------|--------------------|
-|-------------------|-----------------------------------|--------------------|
-|-9---9---9---9-9-9-|-13-13-13--13-13--13--13-13--13-13-|--------------------|
-|-9---9---9---9-9-9-|-12-12-12--12-12--12--12-12--12-12-|--------------------|
-|-7---7---7---7-7-7-|-----------------------------------|--------------------|
-|-------------------|-----------------------------------|--------------------|
 G2 (w/ heavy wah)

-|-------------------------------|------------------------------------|-------|
-|-------------------------------|-19-----------19---19-----19-19-19--|-------|
-|-14--------14--14----------14--|-19-----------19---19-----19-19-19--|-------|
-|-12--------12--12----------12--|-19-----------19---19-----19-19-19--|-------|
-|-------------------------------|------------------------------------|-------|
-|-------------------------------|------------------------------------|-------|
 G1

-|-------------------------------|------------------------------------|-------|
-|-------------------------------|-19-19-19-19-19-19-19-19--19----19--|-------|
-|-14-14-14--14--14--14-14--14---|-19-19-19-19-19-19-19-19--19----19--|-------|
-|-12-12-12--12--12--12-12--12---|-19-19-19-19-19-19-19-19--19----19--|-------|
-|-------------------------------|-17-17-17-17-17-17-17-17--17----17--|-------|
-|-------------------------------|------------------------------------|-------|
 G2

-|-x--x----------------|-------x----|------------------------------------------|
-|----x--x------------|-------x----|-------------------------------------------|
-|--------x---------x-|-------------|------------------------------------------|
-|-------------------x-|--x---------|------------------------------------------|
-|----------------------|--x---------|-----------------------------------------|
-|----------------------|-------------|----------------------------------------|
 G1

-|---12------12--12--12-|-12----------|----------------------------------------|
-|-x-12---x--12--12--12-|-12----------|----------------------------------------|
-|-x-12---x--12--12--12-|-12----------|----------------------------------------|
-|---12------12--12--12-|-12----------|----------------------------------------|
-|----------------------|-------------|----------------------------------------|
-|----------------------|---------7--|-----------------------------------------|
 G2

-|----------------------------------|---------------------------------|-------|
-|----------------------------------|---------------------------------|-------|
-|----------------------------------|-----------------------------7---|-------|
-|--9-9---9-9-9-9-9---9---9-9-9-9-9-|-7-7---7-7-7-7-7---7---7-7-9---9-|-------|
-|----------------------------------|---------------------------------|-------|
-|----------------------------------|---------------------------------|-------|
 G1 She       scratch - es      a     letter                       in -

-|----------------------------------|---------------------------------|-------|
-|----------------------------------|---------------------------------|-------|
-|--7-7---7---7-7-7---7---7-7-7-7-7-|---------------------------------|-------|
-|----------------------------------|-9-9---9---9-9-9---9---9-9-9-9-9-|-------|
-|----------------------------------|---------------------------------|-------|
-|----------------------------------|---------------------------------|-------|
 G1 -to  a  wall                      made   of  stone       maybe

-|----------------------------------|---------------------------------|-------|
-|----------------------------------|---------------------------------|-------|
-|----------------------------------|-----------------------------7---|-------|
-|--9-9---9-9-9-9-9---9---9-9-9-9-9-|-7-7---7-7-7-7-7---7---7-7-9---9-|-------|
-|----------------------------------|---------------------------------|-------|
-|----------------------------------|---------------------------------|-------|
 G1 Some       day     another        child

-|----------------------------------|---------------------------------|-------|
-|----------------------------------|---------------------------------|-------|
-|--7-7---7---7-7-7---7---7-7-7-7-7-|---------------------------------|-------|
-|----------------------------------|-9-9---9---9-9-9---9---9-9-9-9-9-|-------|
-|----------------------------------|---------------------------------|-------|
-|----------------------------------|---------------------------------|-------|
 G1  Won't      feel                  as      alone        as

-|----------------------------------|---------------------------------|-------|
-|----------------------------------|---------------------------------|-------|
-|----------------------------------|-----------------------------7---|-------|
-|--9-9---9-9-9-9-9---9---9-9-9-9-9-|-7-7---7-7-7-7-7---7---7-7-9---9-|-------|
-|----------------------------------|---------------------------------|-------|
-|----------------------------------|---------------------------------|-------|
 G1 She       does  it's been two     years                 and count-

-|----------------------------------|---------------------------------|-------|
-|--9---x-x-x-x-9----x----7-9---7---|-9---x-x-x-x-9---x-x-x-x-9---7---|-------|
-|--7---x-x-x-x-7----x----7-7---7---|-7---x-x-x-x-7---x-x-x-x-7---7---|-------|
-|----------------------------------|---------------------------------|-------|
-|----------------------------------|---------------------------------|-------|
-|----------------------------------|---------------------------------|-------|
 G2

-|----------------------------------|---------------------------------|-------|
-|----------------------------------|---------------------------------|-------|
-|--7-7---7---7-7-7---7---7-7-7-7-7-|---------------------------------|-------|
-|----------------------------------|-9-9---9---9-9-9---9---9-9-9-9-9-|-------|
-|----------------------------------|---------------------------------|-------|
-|----------------------------------|---------------------------------|-------|
 G1 -ing                  since they  put her      in        this

-|----------------------------------|---------------------------------|-------|
-|--9---x-x-x-7-9----x----7-9---7---|-9---x-x-x-7-9----x----7-9---7---|-------|
-|--7---x-x-x-7-7----x----7-7---7---|-7---x-x-x-7-7----x----7-7---7---|-------|
-|----------------------------------|---------------------------------|-------|
-|----------------------------------|---------------------------------|-------|
-|----------------------------------|---------------------------------|-------|
 G2

-|----------------------------------|---------------------------------|-------|
-|----------------------------------|---------------------------------|-------|
-|----------------------------------|-----------------------------7---|-------|
-|--9-9---9-9-9-9-9---9---9-9-9-9-9-|-7-7---7-7-7-7-7---7---7-7-9---9-|-------|
-|----------------------------------|---------------------------------|-------|
-|----------------------------------|---------------------------------|-------|
 G1 Place     she's    been    diag - nosed           by  some  stupid

-|----------------------------------|---------------------------------|-------|
-|--9---x-x-x-x-9---x-x-x-x-9---7---|-9---x-x-x-x-9---x-x-x-x-9---7---|-------|
-|--7---x-x-x-x-7---x-x-x-x-7---7---|-7---x-x-x-x-7---x-x-x-x-7---7---|-------|
-|----------------------------------|---------------------------------|-------|
-|----------------------------------|---------------------------------|-------|
-|----------------------------------|---------------------------------|-------|
 G2

-|----------------------------------|---------------------------------|-------|
-|----------------------------------|---------------------------------|-------|
-|--7-7---7---7-7-7---7---7-7-7-7-7-|---------------------------------|-------|
-|----------------------------------|-9-9---9---9-9-9---9---9-9-9-9-9-|-------|
-|----------------------------------|---------------------------------|-------|
-|----------------------------------|---------------------------------|-------|
 G1 Fuck                        and   mommy  agrees    yea

-|----------------------------------|---------------------------------|-------|
-|--9-----9-9-9-9-----9---9-9---9---|-9-----9-9-9-9-----9---9-9---9---|-------|
-|--7-----7-7-7-7-----7---7-7---7---|-7-----7-7-7-7-----7---7-7---7---|-------|
-|--9-----9-9-9-9-----9---9-9---9---|-9-----9-9-9-9-----9---9-9---9---|-------|
-|--7-----7-7-7-7-----7---7-7---7---|-7-----7-7-7-7-----7---7-7---7---|-------|
-|----------------------------------|---------------------------------|-------|
 G2

-|------------------------|------------------------|-------------------------|
-|------------------------|------------------------|-------------------------|
-|------------------------|------------------------|-------------------------|
-|------------------------|------------------------|-------------------------|
-|----------------------5-|----------------------5-|----------------------5--|
-|-0--0-5/7-0--0--0-5/7---|-0--0-5/7-0--0--0-5/7---|-0--0-5/7-0--0--0-5/7----|
 G1 + G2          woh            yeah                        hey  yeah

-|--------------------------------|------|-----------|-----------|----------|--|
-|--------------------------------|------|-----------|-----------|----------|--|
-|--------------------------------|----8-|-----------|-----------|----------|--|
-|--------------------------------|------|-----------|-----------|----------|--|
-|------------------------5-------|------|-----------|-----------|----------|--|
-|-0--0-5/7-0--0-0--0-5/7---7-53-|-0----|-----------|-----------|----------|---|
 G1 + G2                                 Why go home why go home why go home

-|----------------------------------|---------------------------------|-------|
-|----------------------------------|---------------------------------|-------|
-|----------------------------------|-----------------------------7---|-------|
-|--9-9---9-9-9-9-9---9---9-9-9-9-9-|-7-7---7-7-7-7-7---7---7-7-9---9-|-------|
-|----------------------------------|---------------------------------|-------|
-|----------------------------------|---------------------------------|-------|
 G1 She        seems to  be  strong - er                         but

-|----------------------------------|---------------------------------|-------|
-|----------------------------------|---------------------------------|-------|
-|--7-7---7---7-7-7---7---7-7-7-7-7-|---------------------------------|-------|
-|----------------------------------|-9-9---9---9-9-9---9---9-9-9-9-9-|-------|
-|----------------------------------|---------------------------------|-------|
-|----------------------------------|---------------------------------|-------|
 G1 What  they  want                  her    to   be         is

-|----------------------------------|---------------------------------|--------|
-|----------------------------------|-------------------------9-------|--------|
-|----------------------------------|-------------------------7-------|--------|
-|----------------------------------|-9----5-----------------9-------|---------|
-|----------------------------------|-------------7vvvvvv-------------|--------|
-|----------------------------------|---------------------------------|--------|
 G2

-|----------------------------------|---------------------------------|-------|
-|----------------------------------|---------------------------------|-------|
-|----------------------------------|-----------------------------7---|-------|
-|--9-9---9-9-9-9-9---9---9-9-9-9-9-|-7-7---7-7-7-7-7---7---7-7-9---9-|-------|
-|----------------------------------|---------------------------------|-------|
-|----------------------------------|---------------------------------|-------|
 G1 Weak        she could play  pre - tend         she could join the

-|----------------------------------|---------------------------------|-------|
-|--9---x-x-x-x-9---x-x-x-x-9---7---|-9---x-x-x-x-9---x-x-x-x-9---7---|-------|
-|--7---x-x-x-x-7---x-x-x-x-7---7---|-7---x-x-x-x-7---x-x-x-x-7---7---|-------|
-|----------------------------------|---------------------------------|-------|
-|----------------------------------|---------------------------------|-------|
-|----------------------------------|---------------------------------|-------|
 G2

-|----------------------------------|---------------------------------|-------|
-|----------------------------------|---------------------------------|-------|
-|--7-7---7---7-7-7---7---7-7-7-7-7-|---------------------------------|-------|
-|----------------------------------|-9-9---9---9-9-9---9---9-9-9-9-9-|-------|
-|----------------------------------|---------------------------------|-------|
-|----------------------------------|---------------------------------|-------|
 G1 Game     boy                      she could be         another

-|----------------------------------|---------------------------------|-------|
-|--9---x-x-x-7-9-----9---x-9---7---|-9-----9-9-9-9-----9---9-9---9---|-------|
-|--7---x-x-x-7-7-----7---x-7---7---|-7-----7-7-7-7-----7---7-7---7---|-------|
-|----------------------------------|-9-----9-9-9-9-----9---9-9---9---|-------|
------------------------------------|-7-----7-7-7-7-----7---7-7---7---|-------|
-|----------------------------------|---------------------------------|-------|
 G2

-|------------------------|------------------------|-------------------------|
-|------------------------|------------------------|-------------------------|
-|------------------------|------------------------|-------------------------|
-|------------------------|------------------------|-------------------------|
-|----------------------5-|----------------------5-|----------------------5--|
-|-0--0-5/7-0--0--0-5/7---|-0--0-5/7-0--0--0-5/7---|-0--0-5/7-0--0--0-5/7----|
 G1+G2 Clone      woooh                ahh                             ahh

-|--------------------------------|---------|----------------------------------|
-|--------------------------------|---------|----------------------------------|
-|--------------------------------|-----8---|----------------------------------|
-|--------------------------------|-----9---|----------------------------------|
-|------------------------5-------|-----7---|----------------------------------|
-|-0--0-5/7-0--0-0--0-5/7---7-53-|-0-------|-----------------------------------|
 G1+G2  Yeah

-|--0--0--0--0---0---0---0-|--0---0--0---0-----|--0--0--0--0--0--0--0----|----|
-|-17-17-17-17--17--15--12-|-12--12-12--10-----|-12-12-12-12-12-12-12----|----|
-|-------------------------|-------------------|-------------------------|----|
-|-------------------------|-------------------|-------------------------|----|
-|-------------------------|-------------------|-------------------------|----|
-|-------------------------|-------------------|-------------------------|----|

-|-------------------------|-------------------------|------------------------|
-|-------------------------|-------------------------|------------------------|
-|-9--9-9-9--9-9-9-9-9-9-9-|-9--9-9-9--9-9-9-9-9-9-9-|------------------------|
-|-9--9-9-9--9-9-9-9-9-9-9-|-9--9-9-9--9-9-9-9-9-9-9-|------------------------|
-|-7--7-7-7--7-7-7-7-7-7-7-|-7--7-7-7--7-7-7-7-7-7-7-|------------------------|
-|-------------------------|-------------------------|------------------------|
 G1+G2  Why go home          Why  go  home

-|-------------------------|-------------------------|------------------------|
-|-------------------------|-------------------------|------------------------|
-|-9--9-9-9--9-9-9-9-9-9-9-|-9--9-9-9--9-9-9-9-9-9-9-|------------------------|
-|-9--9-9-9--9-9-9-9-9-9-9-|-9--9-9-9--9-9-9-9-9-9-9-|------------------------|
-|-7--7-7-7--7-7-7-7-7-7-7-|-7--7-7-7--7-7-7-7-7-7-7-|------------------------|
-|-------------------------|-------------------------|------------------------|
 G1+G2 Why go home           Why go home  what you taught

-|-------------------------|-------------------------|------------------------|
-|-------------------------|-------------------------|------------------------|
-|-9--9-9-9--9-9-9-9-9-9-9-|-9--9-9-9--9-9-9-9-9-9-9-|------------------------|
-|-9--9-9-9--9-9-9-9-9-9-9-|-9--9-9-9--9-9-9-9-9-9-9-|------------------------|
-|-7--7-7-7--7-7-7-7-7-7-7-|-7--7-7-7--7-7-7-7-7-7-7-|------------------------|
-|-------------------------|-------------------------|------------------------|
 G1+G2 Me     put me here                  don't come

-|-------------------------|-------------------------|------------------------|
-|-------------------------|-------------------------|------------------------|
-|-9--9-9-9--9-9-9-9-9-9-9-|-------------------------|------------------------|
-|-9--9-9-9--9-9-9-9-9-9-9-|-------------------------|------------------------|
-|-7--7-7-7--7-7-7-7-7-7-7-|-----5-------------------|------------------------|
-|-------------------------|-0-----------------------|------------------------|
 G1  Visit            mother

-|-------------------------|-------------------------|------------------------|
-|-------------------------|----------------------12-|------------------------|
-|-9--9-9-9--9-9-9-9-9-9-9-|----------------14b16----|------------------------|
-|-9--9-9-9--9-9-9-9-9-9-9-|-------------------------|------------------------|
-|-7--7-7-7--7-7-7-7-7-7-7-|-----5-------------------|------------------------|
-|-------------------------|-0-----------------------|------------------------|
 G2

-|-----------------------------------------------------------------|----------|
-|-15p12--12h15p12--12h15p12--12h15p12--12h15p12--12h15p12---12-12-|----------|
-|------14--------14--------14--------14--------14--------14-------|----------|
-|-----------------------------------------------------------------|----------|
-|-----------------------------------------------------------------|----------|
-|-----------------------------------------------------------------|----------|
 G2

-|-------------------------------12-14-|--------------------------------------|
-|----12h15p12---12-15b17vvvvvvv-------|--------------------------------------|
-|-14---------14-----------------------|--------------------------------------|
-|-------------------------------------|--------------------------------------|
-|-------------------------------------|--------------------------------------|
-|-------------------------------------|--------------------------------------|
 G2

-|-15--12h15p12----12--------12-------------------------------------|---------|
-|--------------15----15b17-----15p12-------------------------------|---------|
-|------------------------------------14-14b16r14p12-14-12----12-12-|---------|
-|---------------------------------------------------------14-------|---------|
-|------------------------------------------------------------------|---------|
-|------------------------------------------------------------------|---------|
 G2

-|-------------------------------------|---------------------------------------|
-|-------------------------------------|---------------------------------------|
-|-12b*--------------------------------|---------------------------------------|
-|---------------14-14-------------14-|----------------------------------------|
-|------------------------14-----------|---------------------------------------|
-|-------------------------------------|---------------------------------------|
 G2*Bend quarter step

-|----------------------------------------|-------------------|----------------|
-|----------------------------------------|-------------------|----------------|
-|----------------------------------------|-------------------|----------------|
-|-12-12----------------------------------|-------------------|----------------|
-|-------14-12-10-12b14r12b14r12b14r12b14-|-x-x-x12b14--x-x-x-|----------------|
-|----------------------------------------|-------------------|----------------|
 G2                                w/ wah--hold--    --hold--------------------|

-|-----------------------------|-----------------------17b19vvvv-|------------|
-|-----------------------------|---------------------------------|------------|
-|-----------------------------|-14----12------------------------|------------|
-|-------12-14-12/14vvvv-14vvv-|----14----14-14--14/-------------|------------|
-|-12/14-----------------------|---------------------------------|------------|
-|-----------------------------|---------------------------------|------------|
 G2                                                        --hold--

-|-*b19-19-19-19-|-19-19--17--17p15--------|----------------------------------|
-|---------------|---------------------/17-|----------------------------------|
-|---------------|-------------------------|----------------------------------|
-|---------------|-------------------------|----------------------------------|
-|---------------|-------------------------|----------------------------------|
-|---------------|-------------------------|----------------------------------|
 G2 *pre-bend on 17th fret

-|-15-------------------------------------------------------|------------------|
-|----17-15h17p15-------------------------------12-15-12-15-|------------------|
-|----------------1514-12-14b*--12h14p12----12-------------|-------------------|
-|----------------------------------------14----------------|------------------|
-|----------------------------------------------------------|------------------|
-|----------------------------------------------------------|------------------|
 G2                     *bend 1/4

-|-----------12-------15-12h14p12----12h14p15----12-|-------------------------|
-|-15b17vvvv----12-15-------------15----------15----|-------------------------|
-|--------------------------------------------------|-------------------------|
-|--------------------------------------------------|-------------------------|
-|--------------------------------------------------|-------------------------|
-|--------------------------------------------------|-------------------------|
 G2

-|-14p12----12-----------12------------------------------------------|--------|
-|-------15----15b17--------15p12------------------------------------|--------|
-|--------------------------------14-14b16r14p12-14--14--12-14--14b*-|--------|
-|-------------------------------------------------------------------|--------|
-|-------------------------------------------------------------------|--------|
-|-------------------------------------------------------------------|--------|
 G2                                                          * bend 1/4

-|--------------------x------12-|----------------------------------------------|
-|--------------------x---------|----------------------------------------------|
-|-14-12-------12vvvv------------|---------------------------------------------|
-|-------14-14-------------------|---------------------------------------------|
-|-------------------------------|---------------------------------------------|
-|-------------------------------|---------------------------------------------|
 G2

-|-15-12-12-15--12-----15-12-12-15-15-12-12-15-12-12-15-12-12----|------------|
-|------------------------------------------------------------14-|------------|
-|---------------------------------------------------------------|------------|
-|---------------------------------------------------------------|------------|
-|---------------------------------------------------------------|------------|
-|---------------------------------------------------------------|------------|
 G2

-|-17b19-17------17b19-------r17-|--------------------------------------------|
-|-------------------------------|--------------------------------------------|
-|-------------------------------|--------------------------------------------|
-|-------------------------------|--------------------------------------------|
-|-------------------------------|--------------------------------------------|
-|-------------------------------|--------------------------------------------|
 G2                           ohh

-|-------------------------|-------------------------|------------------------|
-|-------------------------|-------------------------|------------------------|
-|-9--9-9-9--9-9-9-9-9-9-9-|-9--9-9-9--9-9-9-9-9-9-9-|------------------------|
-|-9--9-9-9--9-9-9-9-9-9-9-|-9--9-9-9--9-9-9-9-9-9-9-|------------------------|
-|-7--7-7-7--7-7-7-7-7-7-7-|-7--7-7-7--7-7-7-7-7-7-7-|------------------------|
-|-------------------------|-------------------------|------------------------|
 G1+G2  Why go home          Why go home

-|-------------------------|-------------------------|------------------------|
-|-------------------------|-------------------------|------------------------|
-|-9--9-9-9--9-9-9-9-9-9-9-|-9--9-9-9--9-9-9-9-9-9-9-|------------------------|
-|-9--9-9-9--9-9-9-9-9-9-9-|-9--9-9-9--9-9-9-9-9-9-9-|------------------------|
-|-7--7-7-7--7-7-7-7-7-7-7-|-7--7-7-7--7-7-7-7-7-7-7-|------------------------|
-|-------------------------|-------------------------|------------------------|
 G1+G2  Why go home          Why go home  what you taught

-|-------------------------|-------------------------|------------------------|
-|-------------------------|-------------------------|------------------------|
-|-9--9-9-9--9-9-9-9-9-9-9-|-9--9-9-9--9-9-9-9-9-9-9-|------------------------|
-|-9--9-9-9--9-9-9-9-9-9-9-|-9--9-9-9--9-9-9-9-9-9-9-|------------------------|
-|-7--7-7-7--7-7-7-7-7-7-7-|-7--7-7-7--7-7-7-7-7-7-7-|------------------------|
-|-------------------------|-------------------------|------------------------|
 G1+G2  Me      put me here                don't come

-|-------------------------|--------------------|-----------------------------|
-|-------------------------|--------------------|-----------------------------|
-|-9--9-9-9--9-9-9-9-9-9-9-|-7---7-------7---7--|-----------------------------|
-|-9--9-9-9--9-9-9-9-9-9-9-|-7---7-------7---7--|-----------------------------|
-|-7--7-7-7--7-7-7-7-7-7-7-|-5---5-------5---5--|-----------------------------|
-|-------------------------|--------------------|-----------------------------|
 G1+G2  Visit        mother      mother   yea

-|-------------------------|-------------------------|------------------------|
-|-------------------------|-------------------------|------------------------|
-|-9--9-9-9--9-9-9-9-9-9-9-|-9--9-9-9--9-9-9-9-9-9-9-|------------------------|
-|-9--9-9-9--9-9-9-9-9-9-9-|-9--9-9-9--9-9-9-9-9-9-9-|------------------------|
-|-7--7-7-7--7-7-7-7-7-7-7-|-7--7-7-7--7-7-7-7-7-7-7-|------------------------|
-|-------------------------|-------------------------|------------------------|
 G1+G2  Why go home          Why go home

-|-------------------------|-------------------------|------------------------|
-|-------------------------|-------------------------|------------------------|
-|-9--9-9-9--9-9-9-9-9-9-9-|-9--9-9-9--9-9-9-9-9-9-9-|------------------------|
-|-9--9-9-9--9-9-9-9-9-9-9-|-9--9-9-9--9-9-9-9-9-9-9-|------------------------|
-|-7--7-7-7--7-7-7-7-7-7-7-|-7--7-7-7--7-7-7-7-7-7-7-|------------------------|
-|-------------------------|-------------------------|------------------------|
 G1+G2  Why go home          Why go home

-|-------------------------|-------------------------|------------------------|
-|-------------------------|-------------------------|------------------------|
-|-9--9-9-9--9-9-9-9-9-9-9-|-9--9-9-9--9-9-9-9-9-9-9-|------------------------|
-|-9--9-9-9--9-9-9-9-9-9-9-|-9--9-9-9--9-9-9-9-9-9-9-|------------------------|
-|-7--7-7-7--7-7-7-7-7-7-7-|-7--7-7-7--7-7-7-7-7-7-7-|------------------------|
-|-------------------------|-------------------------|------------------------|
 G1+G2  Why go home          Why go home

-|-------------------------|-----------------|-------|-----------||------------|
-|-------------------------|-----------------|-------|-8--------||-------------|
-|-9--9-9-9--9-9-9-9-9-9-9-|-----------------|-------|-7--------||-------------|
-|-9--9-9-9--9-9-9-9-9-9-9-|-----------------|-------|-6--------||-------------|
-|-7--7-7-7--7-7-7-7-7-7-7-|-----5-----------|-------|-7--------||-------------|
-|-------------------------|-0---------------|-------|-0---------||------------|
 G1+G2  Why go home                     Ah
comments
print report bad tab
1 comment total.
0 reply
whelan1991 wrote on November 6 2010, 08:02 pm

great tab! thanks for this

I want to post or [tab]
guest
You may want to rate the tab now too:
select rating
Please do not post tabs as comments. Select "correction" instead!