Oops, an error
Loading. Please wait.

Yield Tab

ver2
ver2

Album

Whole song

More versions @911Tabs.com
1,184 views 3 this week
no commentswrite comment
1 2 3 4 5
please rate
add to favorites launch autoscroll
font size
0
reset
Autoscroll
+/-
esc
set tempo
stop
Contributor
WARNING: You are trying to view
                                    content from Ultimate-Guitar.com
                                    in an unauthorized application,
                                    which is prohibited.

                                    Please use an official Ultimate
                                    Guitar Tabs application for iPhone,
                                    iPad or Android to access legitimate
                                    chords, guitar, bass, and drum tabs
                                    from Ultimate-Guitar.com database.

                                    Type "ultimate guitar tabs" in Apple
                                    App Store's or Android Market's
                                    search to find the application.
#----------------------------------PLEASE NOTE--------------------------------#
#This file is the author's own work and represents their interpretation of the#
#song. You may only use this file for private study, scholarship, or research.#
#-----------------------------------------------------------------------------#
#-- File created with Instab - http://www.pconline.com/~smcarey/instab.html --#
#-----------------------------------------------------------------------------#

Author/Artist: Pearl Jam
Title: Yield Album

p pull off
h hammer on
/ slide up
\ slide down
v vibrato
m mute

Brain of J
Tuning (C# A D F# A d)


----|------------|---------------------------------------------------------|--|
----|------------|---------------------------------------------------------|--|
----|---5---4----|---5-----4------3---5---5------5-----4------3---3---3----|--|
----|-4-4-3-3----|-4-4-4-3-3-3-2--2-2-4-3-4-0--4-4-4-3-3-3-2--2-2-2-2-2-2--|--|
----|-2---1------|-2---2-1---1-0----0---1---0--2---2-1---1-0----0---0---0--|--|
----|-x---x------|-x---x-x---x-x----x---x---x--x---x-x---x-x----x---x---x--|--|
     Intro G1 Pt.1



----|--------------------------------------------------------|
----|--------------------------------------------------------|
----|--------------------------------------------------------|
----|--------------------------------------------------------|
----|--------------------------------------------------------|
----|-10-10-10-9-9-9-8---8-8-10-14-10-8--10-10-10-9-9-9-8----|
     Intro/Verse Pt. 2 

----|----------------------------------------------------|--------------------|
----|----------------------------------------------------|--------------------|
----|----------------------------------------------------|--------------------|
----|-x--------x-------x-------x--------x-------x--------|--------------------|
----|-10-------6-------3-------10-------6-------8--------|--------------------|
----|-11-------7-------4-------11-------7-------9--------|--------------------|
    "The .....soon...world....The......soon....world"  Chorus Strum

----|-----------------------------------------------------------------|------|---|
----|-----------------------------------------------------------------|------|---|
----|-8---------------8h10p8---7--8-------8h10p8---7--8---------------|------|---|
----|-7---------------7-----7-------7---7--------7--------------------|------|---|
----|-----------------------------------------------------------------|------|---|
----|-----------------------------------------------------------------|------|---|
      Interlude     Let Ring                                           solo



Faithful
Tuning (C# A D F# A d)



----|-5--5--5-5-5---5---5--5-5-8--7--7--7-7-7--7---7--7-7-9--5--5--5-5-5------|
----|-3--3--3-3-3---3---3--3-3-6--5--5--5-5-5--5---5--5-5-5--3--3--3-3-3------|
----|-x--x--x-x-x---x---x--x-x-x--x--x--x-x-x--x---x--x-x-x--x--x--x-x-x------|
----|-------------------------------------------------------------------------|
----|-------------------------------------------------------------------------|
----|-------------------------------------------------------------------------|
     Intro

-5---5--5-5-8--7--7--7-7-9--7--7---|------------------------------------------|
-3---3--3-3-6--5--5--5-5-5--5--5---|------------------------------------------|
-x---x--x-x-x--x--x--x-x-x--x--x---|------------------------------------------|
-----------------------------------|------------------------------------------|
-----------------------------------|------------------------------------------|
-----------------------------------|------------------------------------------|


----|-5--5--5-5-5---5---5--5-5-8--7--7--7-7-9--7--7---7--7-7-|----------------|
----|-3--3--3-3-3---3---3--3-3-6--5--5--5-5-5--5--5---5--5-5-|----------------|
----|-x--x--x-x-x---x---x--x-x-x--x--x--x-x-x--x--x---x--x-x-|----------------|
----|--------------------------------------------------------|----------------|
----|--------------------------------------------------------|----------------|
----|--------------------------------------------------------|----------------|
     Verse

----|------------------------------|--|------------------------------------------|
----|------------------------------|--|------------------------------------------|
----|------------------------------|--|------------------------------------------|
----|-----------------8-8--8-8--x--|--|------------------------------------------|
----|-----------------8-8--8-8--5--|--|------------------------------------------|
----|-11b12r11--9--6--x-x--x-x--6--|--|------------------------------------------|
    Bridge

----|----------------------------------------------------|--------------------|
----|----------------------------------------------------|--------------------|
----|-6---5------6---5-----------------6----6-----5-------|--------------------|
----|-5---5-5-5--5---5-5-/-17vvv\-5--5-5--5-5--7\-5-5--5--|--------------------|
----|-------5-5--------5----------3--3----3----5\---5--5--|--------------------|
----|-------x-x--------x----------x--x----x----x----x--x--|--------------------|


----|------------------------------------------------------------|--------------|
----|------------------------------------------------------------|--------------|
----|-6---5-------6---5-----------------6----5-------------------|--------------|
----|-5---5-5-5---5---5-5-/-17vvv\-5--5-5--5-5-/17-17------------|--------------|
----|-------5-5---------5----------3--3----3----------20-17p15-\-|--------------|
----|-------x-x---------x----------x--x----x---------------------|--------------|
     Chorus

----|-----------------------------------------------------|--------------------|
----|-----------------------------------------------------|--------------------|
----|-6---5------6---5---/-20vvv\------6----6-----5-------|--------------------|
----|-5---5-5-5--5---5-5----------5--5-5--5-5--7\-5-5--5--|--------------------|
----|-------5-5--------5----------3--3----3----5\---5--5--|--------------------|
----|-------x-x--------x----------x--x----x----x----x--x--|--------------------|


----|------------------------------------------------------------|--------------|
----|------------------------------------------------------------|--------------|
----|-6---5-------6---5---/-20vvv\------6----6-------------------|--------------|
----|-5---5-5-5---5---5-5----------5--5-5--5-5-/17-17------------|--------------|
----|-------5-5---------5----------3--3----3----------20-17p15-\-|--------------|
----|-------x-x---------x----------x--x----x---------------------|--------------|

----|-------------------------------------------------------------------------------------------|
----|-------------------------------------------------------------------------------------------|
----|-4--4-4-------------6--6-6-----------------------------------------------------------------|
----|-3--3-3-------------5--5-5-----------------------------------------------------------------|
----|--------1-3b4r3-1----------10--10-10--10--10-10-10-10--10--10-10--10-10-10-10-10-12b13r12--|
----|------------------3------------------------------------------------------------------------|
     Mid riff

------------------------------------------------------------------------------------------|
------------------------------------------------------------------------------------------|
----9--9-9-----------11--11-11------------------------------------------------------------|
----8--8-8--7b8r7-7--10--10-10------------------------------------------------------------|
-12-----------------------------10--10-10--10--10-10-10-10--10--10-10--10-10-10-10-3b4r3--|
------------------------------------------------------------------------------------------|


-----------------------------------------------------------------------------------------------|
-----------------------------------------------------------------------------------------------|
-----4--4-4------------6--6-6------------------------------------------------------------------|
-----3--3-3------------5--5-5------------------------------------------------------------------|
-------------3b4r3-1-----------10--10-10--10--10-10-10-10--10--10-10--10--10-10-10-10-12b13r12-|
---6-----------------6-------------------------------------------------------------------------|


----------------------------------------------------------------------------------------|--|
----------------------------------------------------------------------------------------|--|
----9--9-9--------------11--11-11-------------------------------------------------------|--|
----8--8-8--------------10--10-10----------------------------------------8-8--8-8-5-----|--|
------------12b13r12-12------------10--10-10--10--10-10-10-10-3b4r3-1----8-8--8-8-5-----|--|
----------------------------------------------------------------------6--x-x--x-x-x-----|--|


-----|------|--------|-------|------------------------------------------------|
-----|------|--------|-------|------------------------------------------------|
-----|------|--------|-------|------------------------------------------------|
-----|------|--------|-------|------------------------------------------------|
-----|------|--------|-------|------------------------------------------------|
-----|------|--------|-------|------------------------------------------------|
      Bridge  Chorus   Verse Out



No Way
Tuning (C# A D F# A d)



-----|--------|------------------------------|--------------------------------|
-----|--------|------------------------------|--------------------------------|
-----|--------|------------------------------|--------------------------------|
-----|--------|-x--x--x---x---x-x-x-x-x-x-x--|--------------------------------|
-----|-11\-5--|-9--11-11--9-\-5-5-5-5-5-5-5--|--------------------------------|
-----|--------|-10-12-12--12\-6-6-6-6-6-6-6--|--------------------------------|
                Verse

-----|---------------------------------|--------------------------------------|
-----|---------------------------------|--------------------------------------|
-----|---------------------------------|--------------------------------------|
-----|-x-x-x-x-x-x-x-x-x-x-x-x-x-x-x-x-|--------------------------------------|
-----|-6-6-6-6-0-0-0-2-2-2-2-3-3-3-3-6-|--------------------------------------|
-----|-7-7-7-7-1-1-1-3-3-3-3-4-4-4-4-7-|--------------------------------------|
      Chorus

-----|-------------------------------------------------------------------------------------------|
-----|-------------------------------------------------------------------------------------------|
-----|--------------------------------x-x-------------------x-x----------------------------------|
-----|--------------------------------x-x-------------------x-x----------------------------------|
-----|-13--13-13--12--8---8-10-13--13-----12--8-10-8-13--13-----12--8---8-10p8-10--10-10-12-12---|
-----|-------------------------------------------------------------------------------------------|
      Bridge P.M.

------------------|-----------------------------------------------------------|
------------------|-----------------------------------------------------------|
------------------|-----------------------------------------------------------|
------------------|-----------------------------------------------------------|
--12-12--8-10-8-8-|-----------------------------------------------------------|
------------------|-----------------------------------------------------------|




Given To Fly
Tuning (C# A D F# A d)


-----|-----------9----------------------|----------|-----------|--------------|
-----|---------------10-----------------|----------|-----------|--------------|
-----|----------------------------------|----------|--------8--|--------------|
-----|----------------------------------|----------|-----------|--------------|
-----|-0h9-10---------------0-9/10-10---|-7----5---|-5----5----|--------------|
-----|----------------------------------|----------|-----------|--------------|
      Verse Let Ring   (2x)                  end 1       end 2

-----|-7------------7-----------|---------------------------------------------|
-----|----7--7--9---7--7--7--9--|---------------------------------------------|
-----|--------------------------|---------------------------------------------|
-----|--------------------------|---------------------------------------------|
-----|--------------------------|---------------------------------------------|
-----|--------------------------|---------------------------------------------|
      Verse End     P Let Ring

-----|-9---9--9--10---9---|--|-x--x-x--x--x-x--x-x-x--|--|------------------------|
-----|-10--10-10-10---10--|--|-7--9-9--7--9-9--9-9-9--|--|------------------------|
-----|-x---x--x--x----x---|--|-8--8-8--8--8-8--8-8-8--|--|------------------------|
-----|--------------------|4x|------------------------|2x|------------------------|
-----|--------------------|--|------------------------|--|------------------------|
-----|--------------------|--|------------------------|--|------------------------|
      Chorus

-----|---5----5----5-------5----5----5--------------5---5--5--5--|--|---------|
-----|---x----x----x-------x----x----x--------------x---x--x--x--|--|---------|
-----|-6-6--6-6--6-6--\--6-6--6-6--6-6--\--5--3-----5---5--5--5--|--|---------|
-----|-5----5----5----\--5----5----5----\--4--2--5---------------|2x|---------|
-----|-------------------------------------------5---------------|--|---------|
-----|-------------------------------------------x---------------|--|---------|
      Bridge


--|-----------------------------------------------|--|----------------------|
--|-----------------------------------------------|--|----------------------|
--|--------------------------------18-------------|--|----------------------|
--|-21--17------17--17p15--21--17------21--17p15--|--|-21--17------17-\---\-|
--|---------20------------------------------------|--|---------20-----------|
--|-----------------------------------------------|--|----------------------|
    Riff 1 End                                                                     





Pilate
Tuning (C# A D F# A d)



-----|-----------------------------------------------------------------|--|
-----|-----------------------------------------------------------------|--|
-----|-12-12-12-10-10-10-10-8-8---8-x-x-12-12-12-13-13-13--8-8---8-x-x-|--|
-----|-x--x--x--x--x--x--x--x-x---x-x-x-x--x--x--x--x--x---x-x---x-x-x-|--|
-----|-9--9--9--7--7--7--7--5-5---5-----9--9--9--10-10-10--5-5---5-----|--|
-----|-----------------------------------------------------------------|--|
      Intro/Verse

--|-------------------|------|
--|-------------------|------|
--|-11-11-11-11-------|------|
--|-x--x--x--x--------|------|
--|-8--8--8--8--------|------|
--|-------------9-9-/-|------|


-----|------------------------------------------------------------------------|
-----|------------------------------------------------------------------------|
-----|-5-5-5-7-7-7-7-8-8-8-8-3-3-5-5----3-3---5-5-5-7-7-7-7-8-8-8-8-3-3---5-5-|
-----|-x-x-x-x-x-x-x-x-x-x-x-x-x-x-x----x-x---x-x-x-x-x-x-x-x-x-x-x-x-x---x-x-|
-----|-2-2-2-4-4-4-4-5-5-5-5-0-0-2-2----0-0---2-2-2-4-4-4-4-5-5-5-5-0-0---2-2-|
-----|------------------------------------------------------------------------|
       Interlude

-------------------------7-----7-----7-----7-7-6-4---|------------------------|
---------------------5-5---5-5---5-5---5-5---------7-|------------------------|
---3-3---3-3---3-3-----------------------------------|------------------------|
---x-x---x-x---x-x-----------------------------------|------------------------|
---0-0---0-0---0-0-----------------------------------|------------------------|
-----------------------------------------------------|------------------------|
                     G2s Part End Let Ring

-----|--------------------------------------|--|---------|----------------|
-----|-5-5-5-5-----------5-5-5-5------------|--|---------|----------------|
-----|-x-x-x-x-4--4--4---x-x-x-x-x-4-4--4---|--|---------|----------------|
-----|-5-5-5-5-3--3--3---5-5-5-5-x-3-3--3---|--|-4-4-----|----------------|
-----|--------------------------------------|--|-----5---|----------------|
-----|--------------------------------------|--|---------|----------------|
      Chorus

-----|------------------------------------------|-----------------------------|
-----|------------------------------------------|-----------------------------|
-----|-12---13-13-8-8---3-3-5-5-7-7-------------|-----------------------------|
-----|-x----x--x--x-x---x-x-x-x-x-x-------------|-----------------------------|
-----|-9----10-10-5-5---0-0-2-2-4-4-------------|-----------------------------|
-----|------------------------------------------|-----------------------------|
      End




Do The Evolution
Tuning (C# A D F# A d)



-----|------------x--|--|--------------------------------------x--|-----------|
-----|------------6--|--|--------------------------------------6--|-----------|
-----|------------4--|--|----4b4b-4b4b-3--3--2--2-2p1----------4--|-----------|
-----|-5--3---3-5----|--|----2-2--2-2--1--1--0--0-0----3---3-5----|-----------|
-----|-5----5--------|--|-3------------------------------5--------|-----------|
-----|-x-------------|--|-----------------------------------------|-----------|
   Intro/Verse            Chorus

-----|--------------------------------------------------------------------2---|
-----|--------------------------------------------------------------------5---|
-----|--------------------------------------------------------------------3---|
-----|--------------------------------------------------------------------0---|
-----|-8b--5-5--5--5-8---5-5--5--5-7---5-3--3---3-5-7-3-1--0--8b--5-7b-5------|
-----|------------------------------------------------------------------------|
   Bridge                                                                 A

---x--x--x--x--x--x--x----x--x--x-----|--|------|-----------------------------|
-/-17-17-17-17-17-17-17---17-17-17\---|--|------|-----------------------------|
-/-15-15-15-15-15-15-15---15-15-15\---|--|------|-----------------------------|
--------------------------------------|--|------|-----------------------------|
--------------------------------------|--|------|-----------------------------|
--------------------------------------|--|------|-----------------------------|
                                           Pt.1

---------|--------------------------------------------------------------------|
---------|----17----17----17----17----17----17----17----17----17----17----17--|
---------|-17----17----17----17----16----16----16----16----16----16----15-----|
---------|--------------------------------------------------------------------|
---------|--------------------------------------------------------------------|
---------|--------------------------------------------------------------------|
            "Hallelujah"

--------------------------------------2--------2-------2-------2------2---|---|
----17----17----17----17----17--------5----------4-------5------5---------|---|
-15----13----13----13----13-----------3------x-----3-x-----3-x----3-x-----|---|
--------------------------------------0------x-------x-------x------x---0-|---|
--------------------------------------------------------------------------|---|
--------------------------------------------------------------------------|---|
                                      A




Wishlist
Tuning (C# A D F# A d)


-----|-------------------------------------------------|--|-------------------|
-----|-------------------------------------------------|--|-------------------|
-----|-------------------------------------------------|--|-------------------|
-----|-2-2-0-0-2-2-0-0-2-2-0-0-2-2-0-0-3-3-3-3-3-3-3-3-|--|-------------------|
-----|-3-3-3-3-3-3-3-3-3-3-3-3-3-3-3-3-3-3-3-3-3-3-3-3-|--|-------------------|
-----|-x-x-x-x-x-x-x-x-x-x-x-x-x-x-x-x-x-x-x-x-x-x-x-x-|--|-------------------|
      Intro/Verse P.M.

-----|-x-------x----|--|--x---------------------------|
-----|-12------10---|--|--10------8-7-8-7-8-7---------|
-----|-10------10---|--|--10----6---------------------|
-----|-10------10---|--|--10------------------5-------|
-----|--------------|--|------------------------------|
-----|--------------|--|------------------------------|
      Verse Pt. 2 Pick Chords






The Color Red
Tuning (C# A D F# A d)



-----|---|--|------------|--|----------------|-------------------------------|
-----|---|--|-7-----7----|--|----7-----7-----|-7------------7-7--7-----------|
-----|-7-|--|----7-------|--|-7-----7-----7--|-7--------7---7-7--7------7----|
-----|-7-|--|------------|--|----------------|-------7--7-----------7-7-7----|
-----|---|--|------------|--|----------------|-------7--------------7-7------|
-----|---|--|------------|--|----------------|-------------------------------|
     Intro All Natural Harmonics               Verse





MFC
Tuning (C# A D F# A d)



-----|----------------------------------|
-----|----------------------------------|
-----|----------8-----8-8--8------------|
-----|---------------------------10-9---|
-----|-10-10-10----10----------10-----10|
-----|----------------------------------|
   Intro/Interlude

-----|-----5---5-5--------------------|--|-----5---5-----5--5-5-5-|-----------|
-----|-----5---5-5--------------------|--|-----5------5-------5-5-|-----------|
-----|-----x---x-x--------------------|--|-----x--------------x-x-|-----------|
-----|-3-------------5/7-7-7-7b-5-5-0-|--|-3----------------------|-----------|
-----|-3-------------3/5-5-5-5--3-3-0-|--|-3----------------------|-----------|
-----|-x-------------x---x-x-x--x-x-x-|--|-x----------------------|-----------|
   Verse

---------|-------------------------|--|-------------------------|-------------|
---------|-------------------------|--|-------------------------|-------------|
---------|-4--4--4--4--------------|--|-4--4--4--4--4--4--4--4--|-------------|
---------|-3--3--3--3--3--3--3--3--|--|-3--3--3--3--3--3--3--3--|-------------|
---------|-------------3--3--3--3--|--|-------------------------|-------------|
---------|-------------x--x--x--x--|--|-------------------------|-------------|
   Chorus   m  m  m  m  m  m  m  m       m  m  m  m  m  m  m  m




Low Light
Tuning (C# A D F# A d)



-----|--------------------------------------|--|
-----|--------------------------------------|--|
-----|--------------------------------------|2x|
-----|-5--5--5--5--5--5-5-5-5--5-5-5-7--7-7-|--|
-----|-3--2--------5--5-5-5-5--5-5-5-5--5-5-|--|
-----|-------6--5--x--x-x-x-x--x-x-x-x--x-x-|--|
      Intro

-----|--------------------------------------|--|
-----|--------------------------------------|--|
-----|--------------------------------------|2x|
-----|-5--5--5--5--5--5-5-5-7--7-7-7-5--5-5-|--|
-----|-3--2--------5--5-5-5-5--5-5-5-5--5-5-|--|
-----|-------6--5--x--x-x-x-x--x-x-x-x--x-x-|--|
      Verse

-----|-------------------------------------|--|
-----|-------------------------------------|--|
-----|-------------------------------------|2x|
-----|-5--5--5----5--5-5-5-7--7-7-7-5--5-5-|--|
-----|-3--2-------5--5-5-5-5--5-5-5-5--5-5-|--|
-----|-------6----x--x-x-x-x--x-x-x-x--x-x-|--|
      Verse Pt.2

-----|---------|--|---------------------------------------------|---x--------|
-----|---------|--|---------------------------------------------|---5--------|
-----|---------|--|---6------5-----3------5-----6------5--------|---3--------|
-----|-7---5---|--|------5------4-----2------4-----5------4-----|------------|
-----|-5---5---|--|--------3------2-----0------2-----3-------2--|------------|
-----|-x---x---|--|---------------------------------------------|------------|
      Chorus         Chorus End                                   Strum

-----|-x--x--|---------------------------------------------------------|
-----|-5--5--|---------------------------------------------------------|
-----|-3--3--|---------------------------------------------------------|
-----|-5--4--|---------------------------------------------------------|
-----|-5--5--|---------------------------------------------------------|
-----|-x--x--|---------------------------------------------------------|
      Outro Chords Strum







In Hiding
Tuning (C# A D F# A d)

-----|-----------------x--x--x--x--x--x---x-x-x-|--|
-----|-----------------10-10-10-10-10-10--9-9-9-|--|
-----|-7--7--7-7-8--x--8--8--8--8--8--8---8-8-8-|--|
-----|-7--7--7-7-7--x---------------------------|--|
-----|------------------------------------------|--|
-----|------------------------------------------|--|
      Intro/Chorus

-----|-----------------x---x---|----------------------------------------------|
-----|-----------------10--9---|----------------------------------------------|
-----|-7--7--7-7-8--x--8---8---|----------------------------------------------|
-----|-7--7--7-7-7--x----------|----------------------------------------------|
-----|-------------------------|----------------------------------------------|
-----|-------------------------|----------------------------------------------|


------|-x----------7---10---9----10----9----10---x-----x---------7---10---9---7---10--|
------|-9------10------10---10---10----10---10---9-----9------10-----10---10------10--|
------|-8---8----------x----x----x-----x----x----8-----8---8---------x----x-------x---|
------|-------------------------------------------------------------------------------|
------|-------------------------------------------------------------------------------|
------|-------------------------------------------------------------------------------|
  Verse                                                          Let Ring

----9------------------7-------x-----7---10---9------10----9---10---x-------|
----10---10-9-7-9/10------9----10--------10---10-----10----10--10---9-------|
----x-----------------------8--8--8------x----x------x-----x---x----8-------|
----------------------------------------------------------------------------|
----------------------------------------------------------------------------|
----------------------------------------------------------------------------|
   Let Ring…………………………


--------|-x------------------------------------------------------5--x-x-x--x-x-x-x|
--------|-9---9/10\9--7-----7--9------10--9--7--10--9--7------7-----7-7-7--9-9-9-9|
--------|-8--------------8--------6-----------------------5---------5-5-5--8-8-8-8|
--------|-------------------------------------------------------------------------|
--------|-------------------------------------------------------------------------|
--------|-------------------------------------------------------------------------|
          A  Interlude 

--x-x-|--|
--9-9-|--|
--8-8-|--|
------|2x|
------|--|
------|--|
 

----|-x---10---10---10---12--12--9---7--10---10--10-10-10-10-10--12-12-12-12-12-12-12--|
----|-9---9----10---9----12--12--9---9--9----9---9--9--9--9--9---12-12-12-12-12-12-12--|
----|-8---x----x----x----x---x---x---x--x----x---x--x--x--x--x---x-x-x-x-x-x-x-x-x-x---|
----|----------------------------------------------------------------------------------|
----|----------------------------------------------------------------------------------|
----|----------------------------------------------------------------------------------|
      Pre interlude

-----|---------------------------------------------------------|--|-----------|
-----|---------------------------------------------------------|--|-----------|
-----|---------------------------x-x-----------------x-x-------|--|-----------|
-----|-2---0------0----0-------0-x-x-x-x-x-x---x---x-x-x-x-x-x-|--|-----------|a
-----|-0--------0------------0-------3-3-3-3---3---3-----3-3-3-|--|-----------|
-----|-x------6-----5-----4----------4-4-3-4---4---4-----4-4-3-|--|-----------|
      Interlude


-----|-------------------------|----------------------------------------------|
-----|-------------------------|----------------------------------------------|
-----|-7--7--7-7-8-----7---3---|----------------------------------------------|
-----|-7--7--7-7-7-----7---0---|----------------------------------------------|
-----|-------------------------|----------------------------------------------|
-----|-------------------------|----------------------------------------------|
        Chorus End


------|-x----------7---10--9---9--------10--7------------------7-----|------|
------|-9------10------10--10-----10----10-------10-9--7--10/9-------|------|
------|-8----8---------x---x---------8--x-------------------------8--|------|
------|--------------------------------------------------------------|------|
------|--------------------------------------------------------------|------|
------|--------------------------------------------------------------|------|
  Outro --                                 Let Ring……………………….          inter  





Push Me Pull Me
Tuning (C# A D F# A d)


-----|-----------|--|-------------|--|-------------|--|-----------------------|
-----|-----------|--|-------------|--|-------------|--|-----------------------|
-----|-----------|--|-------------|--|-------------|--|-----------------------|
-----|-----------|--|-------------|--|-------------|--|-----------------------|
-----|-----------|--|-19-19-19-19-|--|---------5-7-|--|-----------------------|
-----|-3-3--6-8--|--|-------------|--|-3-6-8-10----|--|-----------------------|
      Bass            Guitar          Verse

-----|-----------------------------------------------|--|---------------------|
-----|-----------------------------------------------|--|---------------------|
-----|---------------3-3-3-3-3-3-3-3-3-3-3-3-3-3-3-3-|--|---------------------|
-----|-4-4-----------2-2-2-2-2-2-2-2-2-2-2-2-2-2-2-2-|--|---------------------|
-----|-4-4-------------------------------------------|--|---------------------|
-----|-x-x-------------------------------------------|--|---------------------|
      Chorus F# D A





All Those Yesterdays
Tuning (C# A D F# A d)



-----|-------------------|--|-------------------------------------------------|
-----|-----3-------------|--|-------------------------------------------------|
-----|---3-----------2---|--|-------------------------------------------------|
-----|-3-----3p0---2-2-2-|--|-------------------------------------------------|
-----|-----------3-------|--|-------------------------------------------------|
-----|-------------------|--|-------------------------------------------------|
      Intro/Verse Let Ring

-----|-----3-----------5-------3----------------3---------5------3--------|---|
-----|---5---5-------7---7-----x--------------5---5-----7--------x--------|---|
-----|-4-------4/6-6-------x-3-3-3-----2----4-------4/6----------3-----2--|---|
-----|---------------------x-3-----------2-------------------3-3-----2-2-2|---|
-----|-----------------------------3-3-----------------------------3------|---|
-----|--------------------------------------------------------------------|---|
      Chorus Let Ring

-----|-----------------------------|------------------------------------------|
-----|-----------------------------|------------------------------------------|
-----|-----3---------4---------6---|------------------------------------------|
-----|-------------3---------------|------------------------------------------|
-----|---3---3-3/5-----5/6---6-----|------------------------------------------|
-----|-4-------------------7-----3-|------------------------------------------|
      Bridge





Hummus (Hidden Song)
Tuning (C# A D F# A d)


-----|-7-9-10--9-7-5-9-----------------------------|--|------------------------|
-----|-x-x-x---x-x-x-x--------7/8--7-------7/8--7--|--|------------------------|
-----|-6-8-9---8-6-4-8---7----x----x--7----x----x--|--|------------------------|
-----|---------------------5--5/6--5----5--5/6--5--|--|------------------------|
-----|---------------------------------------------|--|------------------------|
-----|---------------------------------------------|--|------------------------|


-----|-7-9-10--9-7-9/10\9-9----------------|------------------------------------10-|
-----|-x-x-x---x-x-x------x--------7/8--7--|---------------------10--8--8-10-11--x-|
-----|-6-8-9---8-6-8/9-\8-8---7----x----x--|-8-6---8-4/6--6-8-9--x---x--x-x--x---6-|
-----|--------------------------5--5/6--5--|-x-x---x-x----x-x-x--5---3--3-5--6-----|
-----|-------------------------------------|-5-3p0-5-1/3--3-5-6--------------------|
-----|-------------------------------------|---------------------------------------|


--9---10--12--13--12--10--9-----|------------------------------------------------|
--x---x---x---x---x---x---x--10-|------------------------------------------------|
--5---6---8---9---8---6---5--x--|------------------------------------------------|
-----------------------------5--|------------------------------------------------|
--------------------------------|------------------------------------------------|
--------------------------------|------------------------------------------------|
comments
We did not receive enough feedback on this tab! Please rate:
print report bad tab
1 2 3 4 5
I want to post or [tab]
guest
You may want to rate the tab now too:
select rating
Please do not post tabs as comments. Select "correction" instead!