Oops, an error
Loading. Please wait.

Classic Metal X Tab

ver1
ver1

Whole song

Interactive

More versions @911Tabs.com
2,851 views 1 this week
no commentswrite comment
1 2 3 4 5
excellent!
x 2
Autoscroll
+/-
esc
set tempo
stop
Contributor
Difficulty
Tuning
advanced
D G C F A D
Hey! There's an official Ultimate Guitar app which is ideal
for learning songs when you're away from computer. Get the app
WARNING: You are trying to view
                                    content from Ultimate-Guitar.com
                                    in an unauthorized application,
                                    which is prohibited.

                                    Please use an official Ultimate
                                    Guitar Tabs application for iPhone,
                                    iPad or Android to access legitimate
                                    chords, guitar, bass, and drum tabs
                                    from Ultimate-Guitar.com database.

                                    Type "ultimate guitar tabs" in Apple
                                    App Store's or Android Market's
                                    search to find the application.
             S S H.            E
E||-------|-----------------------|
B||-------|-----------------------|
G||-------|-----------------------|
D||-------|--7-5-7~---------------|
A||-------|-----------------------|
D||-------|-----------------------|


  E  E  E  E  H
-----------------------|
-----------------------|
-----------------------|
--5--------------------|
-----8--7--5--4--------|
-----------------------|


    W
----------------------|
----------------------|
----------------------|
--<>5~----------------|
----------------------|
----------------------|


  S  S E  Q    H
------------------------|
------------------------|
------------------------|
--L\--------------------|
------------------------|
------------------------|


  S S H.            E     Q    Q    Q
-----------------------|-----------------|
-----------------------|-----------------|
-----------------------|-----------------|
--7-5-7~---------------|-----------------|
-----------------------|--7----8----4----|
-----------------------|-----------------|


    NH
    W                   Q    Q    Q    Q
---------------------|----------------------|
---------------------|-----------------5----|
--<>7----------------|------------3---------|
---------------------|-------5--------------|
---------------------|--4-------------------|
---------------------|----------------------|


   T      T      T      T      T       T
   |-3-|  |-3-|  |-3-|  |-3-|  |--3-|  |--3-|
   S S S  S S S  S S S  S S S  S S  S  S S  S
----------------------------------------------|
----------------------------------------------|
------------------------------12-7-10-12-7-10-|
----------------12-5-9-12-5-9-----------------|
--10-5-8-10-5-8-------------------------------|
----------------------------------------------|


   |--3-|  |--3-|  |--3-|  |--3-|  |--3-|  |-
   S S  S  S S  S  S S  S  S S  S  S S  S  S
---------------------------------------------|
---------------------------------------------|
----------------------------------15-9-12-15-|
------------------14-8-11-14-8-11------------|
--13-7-10-13-7-10----------------------------|
---------------------------------------------|


   |--3--|  |--3--|  |--3--|  |--3--|  |--3--
   S  S  S  S  S  S  S  S  S  S  S  S  S  S
----------------------------------------------|
----------------------------------------------|
--------------------------------------18-12-1-|
--------------------17-11-14-17-11-14---------|
--16-10-13-16-10-13---------------------------|
----------------------------------------------|


    W
--/18~----------------|
----------------------|
----------------------|
----------------------|
----------------------|
----------------------|


  H        S  Q    E  S
--L--------L\-----------|
------------------------|
------------------------|
------------------------|
------------------------|
------------------------|


  S  E   S S. T  T S T E  E  E  S S
----/6~--5--------------------------|
-----------8--6p-5------------------|
-------------------7-L-6-----6--7---|
--------------------------7---------|
------------------------------------|
------------------------------------|


  |--3-|  |--3-| |--3-|  |--3-|
  S  S S  S S  S S  S S  S S  S H
------------------------------------------|
--5h-6-5h-6-5h-6-5h-6-5h-6-5h-6-5~--------|
------------------------------------------|
------------------------------------------|
------------------------------------------|
------------------------------------------|


   Q     Q    H           W
-----------------------|-------------------|
--10\------------------|-------------------|
---9\------------------|-------------------|
--------------0--------|--L----------------|
--------------0--------|--L----------------|
--------------0--------|--L----------------|


   T     T     T     T     T     T     T
   S  S  S  S  S  S  S  S  S  S  S  S  S  S
----------------------------------------------|
----------------------------------------------|
----------------------------------------------|
--------------------------------------12p-5---|
--12p-5-12p-7-12p-8-12p-5-12p-7-12p-8-------1-|
----------------------------------------------|


   T     T     T     T     T     T     T
   S  S  S  S  S  S  S  S  S  S  S  S  S  S
----------------------------------------------|
----------------------------------------------|
----------------------------------------------|
--------12p-5-12p-7-------12p-5-12p-7-12p-8-1-|
--12p-8-------------12p-8---------------------|
----------------------------------------------|


   T     T     T     T     T     T     T
   S  S  S  S  S  S  S  S  S  S  S  S  S  S
----------------------------------------------|
----------------------------------------------|
----------------------------------------------|
--12p-7-12p-3-12p-5---------------------------|
--------------------12p-7-12p-8-12p-5-12p-7-1-|
----------------------------------------------|


   T     T     T     T     T    T     T     T
   S  S  S  S  S  S  S  S  S S  S  S  S  S  S
----------------------------------------------|
----------------------------------------------|
----------------------------------------------|
----------------------------------------------|
--12p-5-12p-2-12p-4-12p-0-12------------------|
-----------------------------5-12p-7-12p-3-12-|


   T     T     T     T     T     T      T
   S  S  S  S  S  S  S  S  S  S  S  S   S  S
---------------------------------------------|
---------------------------------------------|
---------------------------------------------|
---------------------------------------12p-5-|
--12p-5-12p-7-12p-8-12p-5-12p-7-12p-8h-------|
---------------------------------------------|


   T     T     T     T     T     T     T
   S  S  S  S  S  S  S  S  S  S  S  S  S  S
----------------------------------------------|
----------------------------------------------|
----------------------------------------------|
--------12p-5-12p-7-------12p-5-12p-7-12p-8-1-|
--12p-8-------------12p-8---------------------|
----------------------------------------------|


   T     T     T     T     T     T     T
   S  S  S  S  S  S  S  S  S  S  S  S  S  S
----------------------------------------------|
----------------------------------------------|
----------------------------------------------|
--12p-7-12p-3-12p-5---------------------------|
--------------------12p-7-12p-8-12p-5-12p-7-1-|
----------------------------------------------|


  W
--------------------|
--------------------|
--------------------|
--------------------|
--5~----------------|
--------------------|


   S  S  S   S  S   S  S  S  S   S  S   S  S
----------------------------------------------|
----------------------------------------------|
----------------------------------------------|
------------------------------------------15--|p
--15p-8-15p-10-15p-11-15p-8-15p-10-15p-11-----|
----------------------------------------------|


   S   S  S  S  S   S  S   S  S  S  S   S  S
----------------------------------------------|
----------------------------------------------|
----------------------------------------------|
---------15p-8-15p-10--------15p-8-15p-10-15--|p
--15p-11--------------15p-11------------------|
----------------------------------------------|


   S   S  S   S  S   S  S   S  S   S  S   S
----------------------------------------------|
----------------------------------------------|
----------------------------------------------|
--------------------------------------------1-|
--18p-11-18p-13-18p-14-18p-11-18p-13-18p-14---|
----------------------------------------------|


   S   S  S   S  S   S  S   S  S   S  S   S
----------------------------------------------|
----------------------------------------------|
----------------------------------------------|
---------18p-11-18p-13--------18p-11-18p-13-1-|
--18p-14---------------18p-14-----------------|
----------------------------------------------|


   S  S  S  S  S  S  S  S  S  S  S  S  S  S
----------------------------------------------|
----------------------------------------------|
----------------------------------------------|
--------------------------------------12p-5---|
--12p-5-12p-7-12p-8-12p-5-12p-7-12p-8-------1-|
----------------------------------------------|


   S  S  S  S  S  S  S  S  S  S  S  S  S  S
----------------------------------------------|
----------------------------------------------|
----------------------------------------------|
--------12p-5-12p-7-------12p-5-12p-7-12p-8-1-|
--12p-8-------------12p-8---------------------|
----------------------------------------------|


   S  S  S  S  S  S  S  S  S  S  S  S  S  S
----------------------------------------------|
----------------------------------------------|
----------------------------------------------|
--12p-7-12p-3-12p-5---------------------------|
--------------------12p-7-12p-8-12p-5-12p-7-1-|
----------------------------------------------|


   S  S  S  S  S  S  S  S  S  S  S  S  S  S
----------------------------------------------|
----------------------------------------------|
----------------------------------------------|
--12p-7-12p-3-12p-5---------------------------|
--------------------12p-7-12p-8-12p-5-12p-7-1-|
----------------------------------------------|


   S  S  S  S  S  S  S  S  S  S  S  S  S  S
----------------------------------------------|
----------------------------------------------|
----------------------------------------------|
--12p-7-12p-3-12p-5---------------------------|
--------------------12p-7-12p-8-12p-5-12p-7-1-|
----------------------------------------------|


   S  S  S  S  S  S  S  S  S S  S  S  S  S  S
----------------------------------------------|
----------------------------------------------|
----------------------------------------------|
----------------------------------------------|
--12p-5-12p-2-12p-4-12p-0-12------------------|
-----------------------------5-12p-7-12p-3-12-|


  PM  PM PM PM  PM PM PM  PM PM PM  PM PM
  |---3--|  |---3--|  |---3--|  |---3--|
  E   E  E  E   E  E  E   E  E  E   E  E
------------------------------------------|
------------------------------------------|
-----10--7-----10--7-----10--7-----10--7--|
--7---------7---------7---------7---------|
------------------------------------------|
------------------------------------------|


  PM  PM PM PM  PM PM PM  PM PM PM  PM PM
  |---3--|  |---3--|  |---3--|  |---3--|
  E   E  E  E   E  E  E   E  E  E   E  E
------------------------------------------|
------------------------------------------|
-----10--7-----10--7-----10--7-----10--7--|
--7---------7---------7---------7---------|
------------------------------------------|
------------------------------------------|


  PM  PM PM PM  PM PM PM  PM PM PM  PM PM
  |---3--|  |---3--|  |---3--|  |---3--|
  E   E  E  E   E  E  E   E  E  E   E  E
------------------------------------------|
------------------------------------------|
-----10--7-----10--7-----10--7-----10--7--|
--7---------7---------7---------7---------|
------------------------------------------|
------------------------------------------|


  PM  PM PM PM  PM PM PM  PM PM PM  PM PM
  |---3--|  |---3--|  |---3--|  |---3--|
  E   E  E  E   E  E  E   E  E  E   E  E
------------------------------------------|
------------------------------------------|
-----10--7-----10--7-----10--7-----10--7--|
--7---------7---------7---------7---------|
------------------------------------------|
------------------------------------------|


  PM  PM PM PM  PM PM PM  PM PM PM  PM PM
  |---3--|  |---3--|  |---3--|  |---3--|
  E   E  E  E   E  E  E   E  E  E   E  E
------------------------------------------|
------------------------------------------|
-----10--7-----10--7-----10--8-----10--8--|
--8---------8---------8---------8---------|
------------------------------------------|
------------------------------------------|


  PM  PM PM PM  PM PM PM  PM PM PM  PM PM
  |---3--|  |---3--|  |---3--|  |---3--|
  E   E  E  E   E  E  E   E  E  E   E  E
------------------------------------------|
------------------------------------------|
-----10--8-----12--8-----12--8-----12--8--|
--8---------8---------8---------8---------|
------------------------------------------|
------------------------------------------|


  |----3----|     |----3----|    |----3----|
  Q    Q    Q     E    E    E    E    E    E
----------------------------------------------|
-----------------17s--18s--17s--18s--17s--18--|s
----------------------------------------------|
--8----8----8---------------------------------|
--8----8----8---------------------------------|
--8----8----8---------------------------------|


             3      3
   H         Q.     Q.
---------------------------|
--10--------11------8------|
---------------------------|
---------------------------|
---------------------------|
---------------------------|


                   |---3---|
   H         Q     E   E   E
------------------------------|
--10--------10----10--10--10--|
------------------------------|
------------------------------|
------------------------------|
------------------------------|


   H         Q     Q
------------------------|
--10--------10----10----|
------------------------|
------------------------|
------------------------|
------------------------|


        |--3--|
   Q    E  E  E  H
---------------------------|
--10----8--8-----7b--------|
---------------------------|
---------------------------|
---------------------------|
---------------------------|


            |------3------|
  H         H         E   E
-----------------------------|
--L--------18--------17--18--|
-----------------------------|
-----------------------------|
-----------------------------|
-----------------------------|


   H         H
----------------------|
--18--------15--------|
----------------------|
----------------------|
----------------------|
----------------------|


             |-----3----|
   H         Q    Q     Q
-----------------------------|
--20---------L----8----11----|
-----------------------------|
-----------------------------|
-----------------------------|
-----------------------------|


   tr
   W
------------------------|
--10(11)----------------|
------------------------|
------------------------|
------------------------|
------------------------|


   W
---------------------|
--10~----------------|
---------------------|
---------------------|
---------------------|
---------------------|


                     PM   PM PM PM
  E  E  E  S S S S S S  S S  S  S
-----------------------------------|
-----------------------------------|
-----------------------------------|
-----------------------------------|
--8--0-----0-0-0---0-0--0-0--0--0--|
-----0-----0-0-0---0-0--0-0--0--0--|


                     PM   PM PM PM
  E  E  E  S S S S S S  S S  S  S
-----------------------------------|
-----------------------------------|
-----------------------------------|
-----------------------------------|
--7--0-----0-0-0---0-0--0-0--0--0--|
-----0-----0-0-0---0-0--0-0--0--0--|


                     PM   PM PM PM
  E  E  E  S S S S S S  S S  S  S
-----------------------------------|
-----------------------------------|
-----------------------------------|
-----------------------------------|
--5--0-----0-0-0---0-0--0-0--0--0--|
-----0-----0-0-0---0-0--0-0--0--0--|


                                 NH
  S  S  S  S  S  S  S  S  Q      Q
---------------------------------------|
---------------------------------------|
---------------------------------------|
---------------------------------------|
--8p-5h-8p-5h-7p-4h-7p-4p-1----<>4b----|
---------------------------------------|


                     PM   PM PM PM
  E  E  E  S S S S S S  S S  S  S
-----------------------------------|
-----------------------------------|
-----------------------------------|
-----------------------------------|
--8--0-----0-0-0---0-0--0-0--0--0--|
-----0-----0-0-0---0-0--0-0--0--0--|


                     PM   PM PM PM
  E  E  E  S S S S S S  S S  S  S
-----------------------------------|
-----------------------------------|
-----------------------------------|
-----------------------------------|
--7--0-----0-0-0---0-0--0-0--0--0--|
-----0-----0-0-0---0-0--0-0--0--0--|


                     PM   PM PM PM
  E  E  E  S S S S S S  S S  S  S
-----------------------------------|
-----------------------------------|
-----------------------------------|
-----------------------------------|
--5--0-----0-0-0---0-0--0-0--0--0--|
-----0-----0-0-0---0-0--0-0--0--0--|


  S  S  S  S  S  S  S  S  E  E  E  E
--------------------------------------|
--------------------------------------|
--------------------------------------|
--------------------------------------|
--8p-5h-8p-5h-7p-4h-7p-4p-1--8--7--4--|
--------------------------------------|


                     PM   PM PM PM
  E  E  E  S S S S S S  S S  S  S
-----------------------------------|
-----------------------------------|
-----------------------------------|
-----------------------------------|
--8--0-----0-0-0---0-0--0-0--0--0--|
-----0-----0-0-0---0-0--0-0--0--0--|


                     PM   PM PM PM
  E  E  E  S S S S S S  S S  S  S
-----------------------------------|
-----------------------------------|
-----------------------------------|
-----------------------------------|
--7--0-----0-0-0---0-0--0-0--0--0--|
-----0-----0-0-0---0-0--0-0--0--0--|


                     PM   PM PM PM
  E  E  E  S S S S S S  S S  S  S
-----------------------------------|
-----------------------------------|
-----------------------------------|
-----------------------------------|
--5--0-----0-0-0---0-0--0-0--0--0--|
-----0-----0-0-0---0-0--0-0--0--0--|


                                       NH
  S  S  S  S  S  S  S  S  S  S  S  S   Q
---------------------------------------------|
---------------------------------------------|
---------------------------------------------|
---------------------------------------------|
--8p-5h-8p-5h-7p-4h-7p-4p-1h-4p-1h-4-<>4b----|
---------------------------------------------|


                     PM   PM PM PM
  E  E  E  S S S S S S  S S  S  S
-----------------------------------|
-----------------------------------|
-----------------------------------|
-----------------------------------|
--8--0-----0-0-0---0-0--0-0--0--0--|
-----0-----0-0-0---0-0--0-0--0--0--|


                     PM   PM PM PM
  E  E  E  S S S S S S  S S  S  S
-----------------------------------|
-----------------------------------|
-----------------------------------|
-----------------------------------|
--7--0-----0-0-0---0-0--0-0--0--0--|
-----0-----0-0-0---0-0--0-0--0--0--|


                     PM   PM PM PM
  E  E  E  S S S S S S  S S  S  S
-----------------------------------|
-----------------------------------|
-----------------------------------|
-----------------------------------|
--5--0-----0-0-0---0-0--0-0--0--0--|
-----0-----0-0-0---0-0--0-0--0--0--|


                                       NH
  S  S  S  S  S  S  S  S  S  S  S  S   Q
---------------------------------------------|
---------------------------------------------|
---------------------------------------------|
---------------------------------------------|
--8p-5h-8p-5h-7p-4h-7p-4p-1h-4p-1h-4-<>4b----|
---------------------------------------------|


  PM PM PM PM PM PM PM PM
  S  S  S  S  S  S  S  S    Q     Q
---------------------------------------|
---------------------------------------|
---------------------------------------|
---------------------------------------|
--0--0--0--0--0--0--0--0--<>5b---------|
--0--0--0--0--0--0--0--0---------------|


   S S S S S S S S S S S S  S S S S
------------------------------------|
------------------------------------|
------------------------------------|
--12-0-0-0-0-0-0-0-0-0-0-0-10-0-0-0-|
------------------------------------|
------------------------------------|


  S S S S S S S S S S S S S S S S
----------------------------------|
----------------------------------|
----------------------------------|
--0-0-0-0-0-0-0-0-8-0-0-0-0-0-0-0-|
----------------------------------|
----------------------------------|


                            TH
  S S S S S S S S S S S S   S  S S S
-------------------------------------|
-------------------------------------|
-------------------------------------|
--0-0-0-0-7-0-0-0-0-0-0-0------------|
--------------------------<>5~-L-L-L-|
-------------------------------------|


  E  E  E   E  E  E
---------------------|
---------------------|
---------------------|
---------------------|
--L--L--L\-----------|
---------------------|


   S S S S S S S S S S S S  S S S S
------------------------------------|
------------------------------------|
------------------------------------|
------------------------------------|
--12-0-0-0-0-0-0-0-0-0-0-0-10-0-0-0-|
------------------------------------|


  S S S S S S S S S S S S S S S S
----------------------------------|
----------------------------------|
----------------------------------|
----------------------------------|
--0-0-0-0-0-0-0-0-8-0-0-0-0-0-0-0-|
----------------------------------|


                            PH
  S S S S S S S S S S S S   S S S S
------------------------------------|
------------------------------------|
------------------------------L-L-L-|
------------------------------L-L-L-|
--0-0-0-0-7-0-0-0-0-0-0-0-<>7-L-L-L-|
------------------------------------|


  W
  W                Q
------------------------|
------------------------|
------------------------|
------------------------|
--L---------------------|
------------------------|


   S S S S S S S S S S S S  S S S S
------------------------------------|
------------------------------------|
------------------------------------|
------------------------------------|
------------------------------------|
--12-0-0-0-0-0-0-0-0-0-0-0-10-0-0-0-|


  S S S S S S S S S S S S S S S S
----------------------------------|
----------------------------------|
----------------------------------|
----------------------------------|
----------------------------------|
--0-0-0-0-0-0-0-0-8-0-0-0-0-0-0-0-|


  S S S S S S S S S S S S S S S S
----------------------------------|
----------------------------------|
----------------------------------|
--------------------------0-L-L-L-|
--------------------------0-L-L-L-|
--0-0-0-0-7-0-0-0-0-0-0-0-0-L-L-L-|


  S S S S Q    Q
--------------------|
--------------------|
--------------------|
--L-L-L-L-0---------|
--L-L-L-L-0---------|
--L-L-L-L-0---------|


   |--3--|   |--3--|  |--3--|  |--3--|
   E  E  E   E  E  E  E  E  E  E  E  E
--10--8--6------------------------------|
------------10--8--7--------------------|
----------------------9--7--5-----------|
-------------------------------8--7--5--|
----------------------------------------|
----------------------------------------|


  |--3--|  |--3--|  |--3--|  |--3--|
  E  E  E  E  E  E  E  E  E  E  E  E
--------------------------------------|
--------------------------------------|
--7--5--3-----------------------------|
-----------7--5--4--------------------|
--------------------7--5--3-----------|
-----------------------------8--7--5--|


   |---3---|   |---3---|   |---3---|   |---3-
   E   E   E   E   E   E   E   E   E   E   E
--15--13--11---------------------------------|
--------------15--13--11---------------------|
--------------------------14--12--10---------|
--------------------------------------13--12-|
---------------------------------------------|
---------------------------------------------|


   |---3--|   |---3--|   |---3--|   |---3---|
   E   E  E   E   E  E   E   E  E   E   E   E
----------------------------------------------|
----------------------------------------------|
--12--10--8-----------------------------------|
-------------12--10--8------------------------|
------------------------12--10--8-------------|
-----------------------------------13--12--10-|


   |---3---|   |---3---|   |---3---|   |---3-
   E   E   E   E   E   E   E   E   E   E   E
--18--17--15---------------------------------|
--------------18--16--15---------------------|
--------------------------17--15--14---------|
--------------------------------------17--15-|
---------------------------------------------|
---------------------------------------------|


   |---3---|   |---3---|   |---3---|   |---3-
   E   E   E   E   E   E   E   E   E   E   E
---------------------------------------------|
---------------------------------------------|
--15--14--12---------------------------------|
--------------15--13--12---------------------|
--------------------------15--13--12---------|
--------------------------------------17--15-|


   |---3---|   |---3---|   |---3---|   |---3-
   E   E   E   E   E   E   E   E   E   E   E
--22--20--18---------------------------------|
--------------22--20--19---------------------|
--------------------------21--19--17---------|
--------------------------------------20--19-|
---------------------------------------------|
---------------------------------------------|


   |---3---|   |---3---|   |---3---|   |---3-
   E   E   E   E   E   E   E   E   E   E   E
---------------------------------------------|
---------------------------------------------|
--19--17--15---------------------------------|
--------------19--17--16---------------------|
--------------------------19--17--15---------|
--------------------------------------20--19-|


   |---3---|   |---3---|   |---3---|   |---3-
   E   E   E   E   E   E   E   E   E   E   E
--22--20--18---------------------------------|
--------------22--20--19---------------------|
--------------------------21--19--17---------|
--------------------------------------20--19-|
---------------------------------------------|
---------------------------------------------|


   S  S  S  S  S  S  S  S  Q    Q
-------------------------------------|
-------------------------------------|
--19----------19----------19---------|
-----17-17-17----17-17-17------------|
-------------------------------------|
-------------------------------------|


   S  S  S  S S  S S  S S  S  S  S S  S S  S
---------------------------------------------|
---------------------------------------------|
---------------------------------------------|
--12p-0-11p-0-8p-0-7p-0-8p-0-11p-0-8p-0-7p-0-|
---------------------------------------------|
---------------------------------------------|


                                      W
   S S S  S  S S  S  S  S  S  S  S    Q
-------------------------------------------|
-------------------------------------------|
-------------------------------------------|
--11-8-7-12-11-8-14-12-11-15-14-12-<>14----|
-------------------------------------------|
-------------------------------------------|


   S  S  S  S S  S S  S S  S  S  S S  S S  S
---------------------------------------------|
---------------------------------------------|
---------------------------------------------|
--12p-0-11p-0-8p-0-7p-0-8p-0-11p-0-8p-0-7p-0-|
---------------------------------------------|
---------------------------------------------|


                                      W
   S S S  S  S S  S  S  S  S  S  S    Q
-------------------------------------------|
-------------------------------------------|
-------------------------------------------|
--11-8-7-12-11-8-14-12-11-15-14-12-<>14----|
-------------------------------------------|
-------------------------------------------|


   T     T    T    T    T     T    T    T
   S  S  S  S S  S S  S S  S  S  S S  S S  S
---------------------------------------------|
---------------------------------------------|
---------------------------------------------|
--12p-0-11p-0-8p-0-7p-0-8p-0-11p-0-8p-0-7p-0-|
---------------------------------------------|
---------------------------------------------|


   T      T               T      T
   T   T  T   T  S  T  T  T   T  T   T  S  T
---------------------------------------------|
---------------------------------------------|
---------------------------------------------|
--12p-11-12p-11p-8h-L-11-14p-11-14p-11p-8h-L-|
---------------------------------------------|
---------------------------------------------|


   T     T    T    T    T     T    T    T
   S  S  S  S S  S S  S S  S  S  S S  S S  S
---------------------------------------------|
---------------------------------------------|
---------------------------------------------|
--12p-0-11p-0-8p-0-7p-0-8p-0-11p-0-8p-0-7p-0-|
---------------------------------------------|
---------------------------------------------|


   T      T               T      T
   T   T  T   T  S  T  T  T   T  T   T  S  T
---------------------------------------------|
---------------------------------------------|
---------------------------------------------|
--12p-11-12p-11p-8h-L-11-14p-11-14p-11p-8h-L-|
---------------------------------------------|
---------------------------------------------|


   |-----3-----|
   Q     Q     Q    H
-----------------------------|
-----------------------------|
--------------------8--------|
--------------------8--------|
--10----10----10----6--------|
-----------------------------|


  W
-------------------|
-------------------|
--L----------------|
--L----------------|
--L----------------|
-------------------|


  PM   PM   PM
  |----3----|
  Q    Q    Q    H
--------------------------|
--------------------------|
--------------------------|
--3----3----3----0--------|
--3----3----3----0--------|
--3----3----3----0--------|


               |--3--|
  H.           E  E  E
------------------------|
------------------------|
---------------5--5--5--|
--L---------------------|
--L---------------------|
--L---------------------|


         PM PM PM
  E   E  E  E  E   E   E   E
------------------------------|
------------------------------|
--6p--5--5--5--5--12--12--12--|
------------------------------|
------------------------------|
------------------------------|


  H        E  E  E  E
-----------------------|
-----------------------|
--8-----------5--5--5--|
-----------------------|
-----------------------|
-----------------------|


         PM PM PM
  E   E  E  E  E  E  E  E
---------------------------|
------------------9--9--9--|
--6p--5--5--5--5-----------|
---------------------------|
---------------------------|
---------------------------|


  H        E   E   E   E
--------------------------|
--6-----------------------|
--------------12--12--10--|
--------------------------|
--------------------------|
--------------------------|


  H        E   E   E   E
--------------------------|
--------------------------|
--8-----------12--12--10--|
--------------------------|
--------------------------|
--------------------------|


  H        E   E   E   E
--------------------------|
--------------------------|
--8-----------12--12--10--|
--------------------------|
--------------------------|
--------------------------|


  H         H           W
---------------------|-------------------|
---------------------|--8----------------|
--8s--------4--------|-------------------|
---------------------|-------------------|
---------------------|-------------------|
---------------------|-------------------|


  Q.      E.    E.    Q
----------------------------|
--L-------------------------|
---------13~---13~---13~----|
----------------------------|
----------------------------|
----------------------------|


   H         Q.
--------------------|
--------------------|
--10~--------L------|
--------------------|
--------------------|
--------------------|


   Q     Q    E   E   E   E
-----------------------------|
-----------------------------|
---L-----L----L--13--13--13--|
-----------------------------|
-----------------------------|
--------------L--------------|


   E   E   E   E  E   E   E   E
---------------------------------|
---------------------------------|
--10-----------------------------|
------12--12--12--9--------------|
---------------------11--11--11--|
---------------------------------|


      PM PM PM PM
   E  E  E  E  E   E   E   E
------------------------------|
------------------------------|
------------------13--13--13--|
------------------------------|
--10--5--5--5--5--------------|
------5--5--5--5--------------|


   E   E   E   E  E   E   E   E
---------------------------------|
---------------------------------|
--10-----------------------------|
------12--12--12--9--------------|
---------------------11--11--11--|
---------------------------------|


   E  E   E   E   E   E   E  E
--------------------------------|
--------------------------------|
--------------------------------|
--------------------------------|
--10--8-------------------------|
---------13--12--10---L~--L--L--|


  E  E  E  E    E   E  E  E
-----------------------------|
-----------------------------|
-----------------------------|
-----------------------------|
--------3--5--<>6~--L--L--L--|
-----5-----------------------|


  E  E  E  E    E   E  E  E
-----------------------------|
-----------------------------|
--------5--7--<>8~--L--L--L--|
-----5-----------------------|
-----------------------------|
-----------------------------|


  E  E  E  E  E  E  E  E
--------------------------|
-----------------------6--|
--------5--7--8--7--7-----|
-----5--------------------|
--------------------------|
--------------------------|


  E  E  E  E  E   E   E  E
----------------------------|
--6--------8--8----------9--|
-----9--9--------10--10-----|
----------------------------|
----------------------------|
----------------------------|


  E   E   E   E   E   E   E   E
---------------------------------|
--9----------11--11----------13--|
-----12--12----------13--13------|
---------------------------------|
---------------------------------|
---------------------------------|


   E   E   E   E   E    E   E  E
----------------------------------|
--13----------13--13~---L---L--L--|
------16--16----------------------|
----------------------------------|
----------------------------------|
----------------------------------|


  E  E  E  E   H
---------------------------|
--L--L--------15brb--------|
---------------------------|
---------------------------|
---------------------------|
---------------------------|


  H         E   E  E  E
-------------------------|
--L--------12~--L--L--L--|
-------------------------|
-------------------------|
-------------------------|
-------------------------|


  E  E  E  E  E  E  E  E       H
---------------------------|-------------|
--L--L--8--L--8--L--L--8s--|--20~--------|
---------------------------|-------------|
---------------------------|-------------|
---------------------------|-------------|
---------------------------|-------------|


  S S S S S  S S S  S S  S  S S   S  S S  S
--8-5------------5-11-8----------------8-14-1-|
------7--------7--------10----------10--------|
--------8-5h-8-------------11-8h-11-----------|
----------------------------------------------|
----------------------------------------------|
----------------------------------------------|


   S  S  S  S  S   S  S  S  S  S  S  S  S   S
--17-14-----------------14-20-17--------------|
--------16-----------16----------19-----------|
-----------17-14h-17----------------20-17h-20-|
----------------------------------------------|
----------------------------------------------|
----------------------------------------------|


              S S S S E  S E  S E  S E  S
-----------|------------------------------|
-----------|------------------------------|
-----------|------------------------------|
-----------|------------------------------|
-----------|--0-0---0----0----0----0----0-|
-----------|--0-0---0----0----0----0----0-|


                |--3--|  |--3--|  |--3--|  |-
  E  S E  S E   S  S  S  S  S  S  S  S  S  S
---------------------------------------------|
---------------------------------------------|
---------------------------------------------|
---------------------------------------------|
-----0----0----------------------------------|
-----0----0----15-12-15-12-15-12-14-11-14-11-|


  S S S S E  S E  S E  S E  S
------------------------------|
------------------------------|
------------------------------|
------------------------------|
--0-0---0----0----0----0------|
--0-0---0----0----0----0------|


  S E  E.  E.  E.  Q
------------------------|
------------------------|
------------------------|
------------------------|
--5-L------4------------|
-------8-------7--------|


  S S S S E  S E  S E  S E  S
------------------------------|
------------------------------|
------------------------------|
------------------------------|
--0-0---0----0----0----0----0-|
--0-0---0----0----0----0----0-|


                |--3--|  |--3--|  |--3--|  |-
  E  S E  S E   S  S  S  S  S  S  S  S  S  S
---------------------------------------------|
---------------------------------------------|
---------------------------------------------|
---------------------------------------------|
-----0----0----------------------------------|
-----0----0----15-12-15-12-15-12-14-11-14-11-|


  S S S S E  S E  S E  S E  S
------------------------------|
------------------------------|
------------------------------|
------------------------------|
--0-0---0----0----0----0------|
--0-0---0----0----0----0------|


  S E  E.  E.  E.  Q
------------------------|
------------------------|
------------------------|
------------------------|
--5-L------4------------|
-------8-------7--------|


  PM PM PM PM PM PM PM PM PM PM PM PM
  |--3--|  |--3--|  |--3--|  |--3--|
  E  E  E  E  E  E  E  E  E  E  E  E
--------------------------------------|
--------------------------------------|
--------------------------------------|
--0--0--0--0--0--0--0--0--0--0--0--0--|
--0--0--0--0--0--0--0--0--0--0--0--0--|
--0--0--0--0--0--0--0--0--0--0--0--0--|


  PM PM PM PM     PM PM     PM PM    PM
  |--3--|  |---3--|  |---3--|  |--3--|
  E  E  E  E   E  E  E   E  E  E  E  E
----------------------------------------|
----------------------------------------|
----------------------------------------|
--0--0--0--0----------------------------|
--0--0--0--0--10--------12--------8-----|
--0--0--0--0------0--0------0--0-----0--|


  PM     PM PM                 PM PM PM PM
  |---3--|  |---3---|   |---3--|  |--3--|
  E   E  E  E   E   E   E   E  E  E  E  E
-------------------------------------------|
-------------------------------------------|
-------------------------------------------|
-------------------------------0--0--0--0--|
-----10------------------------0--0--0--0--|
--0------0--0--13--12--10s--8--0--0--0--0--|


  PM PM PM PM PM PM PM PM PM PM PM PM
  |--3--|  |--3--|  |--3--|  |--3--|
  E  E  E  E  E  E  E  E  E  E  E  E
--------------------------------------|
--------------------------------------|
--------------------------------------|
--0--0--0--0--0--0--0--0--0--0--0--0--|
--0--0--0--0--0--0--0--0--0--0--0--0--|
--0--0--0--0--0--0--0--0--0--0--0--0--|


      PM PM     PM PM    PM PM     PM PM
   |--3--|   |--3--|  |--3--|   |--3--|
   E  E  E   E  E  E  E  E  E   E  E  E
-----------------------------------------|
-----------------------------------------|
-----------------------------------------|
-----------------------------------------|
--10--------12--------8--------10--------|
------0--0------0--0-----0--0------0--0--|


                  PM PM     PM     PM    PM
    |---3---|  |--3--|   |---3--|  |--3--|
    E    E  E  E  E  E   E  E   E  E  E  E
--------------------------------------------|
--------------------------------------------|
--------------------------------------------|
--------------------------------------------|
--<>5b~--L--L--L--------10-----12-----8-----|
------------------0--0------0------0-----0--|


      PM    PM    PM    PM    PM PM
   |--3--|  |--3--|  |--3--|  |--3--|
   E  E  E  E  E  E  E  E  E  E  E  E
---------------------------------------|
---------------------------------------|
---------------------------------------|
---------------------------------------|
--10-----7-----8-----5-----7--------4--|
------0-----0-----0-----0-----0--0-----|


  PM PM    PM PM    PM PM
  |--3--|  |--3--|  |---3---|   |--3--|
  E  E  E  E  E  E  E  E    E   E  E  E
-----------------------------------------|
-----------------------------------------|
-----------------------------------------|
-----------------------------------------|
--------5--------1--------<>4~--L--L--L--|
--0--0-----0--0-----0--0-----------------|


  PM PM     PM     PM    PM     PM    PM
  |---3--|  |---3--|  |---3--|  |--3--|
  E  E   E  E   E  E  E  E   E  E  E  E
-----------------------------------------|
-----------------------------------------|
-----------------------------------------|
-----------------------------------------|
--------10-----12-----8-----10-----7-----|
--0--0------0------0-----0------0-----0--|


     PM    PM    PM PM    PM PM    PM
  |--3--|  |--3--|  |--3--|  |--3--|
  E  E  E  E  E  E  E  E  E  E  E  E
--------------------------------------|
--------------------------------------|
--------------------------------------|
--------------------------------------|
--8-----5-----7--------4--------5-----|
-----0-----0-----0--0-----0--0-----0--|


  PM    PM PM
  |--3--|  |----3---|
  E  E  E  E    E   E  S. S
----------------------------|
----------------------------|
-----------------------L----|
----------------------------|
-----1--------<>4~--L--L--L-|
--0-----0--0----------------|


   |--3-| |-3-| |-------|  |--3--|  |---3---|
   S  S S S S S S S     S  S  S  S  S   S   S
-----------------------------------13h-17p-13-|
--------------------------------15------------|
-----------------------------14---------------|
--------------------------15------------------|
--12~-L-L-L-L-L-L-L-12g17---------------------|
----------------------------------------------|


      |--3--|  |--3--|  |--3-|  |--3-| |-3-|
      S  S  S  S  S  S  S S  S  S S  S S S S
--12g15-12-------------12-9------------9-6---|
-----------14---------------11-------------8-|
--------------15-12s-9---------12-9s-6-------|
---------------------------------------------|
---------------------------------------------|
---------------------------------------------|


   T     T     T     T     T     T     T    T
   |--3--|  |--3--|  |--3--|  |--3--|  |--3-|
   S  S  S  S  S  S  S  S  S  S  S  S  S S  S
----------------------------------------------|
----------------------------------------------|
--15-12-15-12-15-12-14-10-14-10-14-10-12-9-12-|
----------------------------------------------|
----------------------------------------------|
----------------------------------------------|


   T    T    T    T     T     T     T     T
   |--3-| |--3-|  |--3--|  |--3--|  |--3--|
   S S  S S  S S  S  S  S  S  S  S  S  S  S
----------------------------------------------|
----------------------------------------------|
--12-9-12-9-12-9-14-10-14-10-14-10-15-12-15-1-|
----------------------------------------------|
----------------------------------------------|
----------------------------------------------|


   |--3--|  |--3--|  |--3--|  |--3--|  |--3--
   S  S  S  S  S  S  S  S  S  S  S  S  S  S
----------------------------------------------|
----------------------------------------------|
----------------------------------------------|
--15-14-12-15-14-12-17-15-14-17-15-14-19-17-1-|
----------------------------------------------|
----------------------------------------------|


   |---3---|   |---3---|   |---3---|
   E   E   E   E   E   E   E   E   E   S  S
----------------------------------------------|
----------------------------------------------|
--------------------------------------------1-|
--20--19--17--19--17--15--17--15--14--15~-L---|
----------------------------------------------|
----------------------------------------------|


   S  S  S  S  S  S  S  S  S  S  S  S  S  S
----------------------------------------------|
----------------------------------------------|
--15-14-12----14-12-------12------------------|
-----------15-------15-14----15-14-12-15-14-1-|
----------------------------------------------|
----------------------------------------------|


   S  S  S  S  S  S  S  S  S  S S S Q
-----------------------------------------|
-----------------------------------------|
-----------------------------------------|
--14-12----------------12-14~-L----------|
--------16-13-12-13-16-------------------|
-----------------------------------------|


  PM   PM       PM PM PM   PM       PM PM
  S  S S  S S S S  S  S  S S  S S S S  S
------------------------------------------|
------------------------------------------|
------------------------------------------|
--0----0--------0--0--0----0--------0--0--|
--0----0--------0--0--0----0--------0--0--|
--0----0--------0--0--0----0--------0--0--|


  PM   PM       PM PM PM PM PM PM PM PM PM PM
  S  S S  S S S S  S  S  S  S  S  S  S  S  S
---------------------------------------------|
---------------------------------------------|
---------------------------------------------|
--0----0--------0--0--0--0--0--0--0--0--0--0-|
--0----0--------0--0--0--0--0--0--0--0--0--0-|
--0----0--------0--0--0--0--0--0--0--0--0--0-|


  PM   PM       PM PM PM   PM       PM PM
  S  S S  S S S S  S  S  S S  S S S S  S
------------------------------------------|
------------------------------------------|
------------------------------------------|
--0----0--------0--0--0----0--------0--0--|
--0----0--------0--0--0----0--------0--0--|
--0----0--------0--0--0----0--------0--0--|


  PM   PM       PM PM PM PM PM PM PM PM PM PM
  S  S S  S S S S  S  S  S  S  S  S  S  S  S
---------------------------------------------|
---------------------------------------------|
---------------------------------------------|
--0----0--------0--0--0--0--0--0--0--0--0--0-|
--0----0--------0--0--0--0--0--0--0--0--0--0-|
--0----0--------0--0--0--0--0--0--0--0--0--0-|


  PM   PM       PM PM PM   PM       PM PM
  S  S S  S S S S  S  S  S S  S S S S  S
------------------------------------------|
------------------------------------------|
------------------------------------------|
--0----0--------0--0--0----0--------0--0--|
--0----0--------0--0--0----0--------0--0--|
--0----0--------0--0--0----0--------0--0--|


  PM   PM       PM PM PM PM PM PM PM PM PM PM
  S  S S  S S S S  S  S  S  S  S  S  S  S  S
---------------------------------------------|
---------------------------------------------|
---------------------------------------------|
--0----0--------0--0--0--0--0--0--0--0--0--0-|
--0----0--------0--0--0--0--0--0--0--0--0--0-|
--0----0--------0--0--0--0--0--0--0--0--0--0-|


  PM   PM       PM PM PM   PM       PM PM
  S  S S  S S S S  S  S  S S  S S S S  S
------------------------------------------|
------------------------------------------|
------------------------------------------|
--0----0--------0--0--0----0--------0--0--|
--0----0--------0--0--0----0--------0--0--|
--0----0--------0--0--0----0--------0--0--|


  PM   PM       PM PM PM PM PM PM PM PM PM PM
  S  S S  S S S S  S  S  S  S  S  S  S  S  S
---------------------------------------------|
---------------------------------------------|
---------------------------------------------|
--0----0--------0--0--0--0--0--0--0--0--0--0-|
--0----0--------0--0--0--0--0--0--0--0--0--0-|
--0----0--------0--0--0--0--0--0--0--0--0--0-|


   E   E   E   E   E   E   E   E
----------------------------------|
----------------------------------|
--14------14------14------14------|
------12------12------12------12--|
----------------------------------|
----------------------------------|


   E   E   E   E   E   E   E   E
----------------------------------|
----------------------------------|
--14------14------14------14------|
------12------12------12------12--|
----------------------------------|
----------------------------------|


   E   E   E   E   E   E   E   E
----------------------------------|
----------------------------------|
--15------15------15------15------|
------12------12------12------12--|
----------------------------------|
----------------------------------|


   E   E   E   E   E   E   E   E
----------------------------------|
----------------------------------|
--15------15------15------15------|
------12------12------12------12--|
----------------------------------|
----------------------------------|


   E   E   E   E   E   E   E   E
----------------------------------|
----------------------------------|
--14------14------14------14------|
------12------12------12------12--|
----------------------------------|
----------------------------------|


   E   E   E   E   E   E   E   E
----------------------------------|
----------------------------------|
--14------14------14------14------|
------12------12------12------12--|
----------------------------------|
----------------------------------|


   E   E   E   E   E   E   E   E
----------------------------------|
--14------14------14------14------|
----------------------------------|
------12------12------12------12--|
----------------------------------|
----------------------------------|


   E   E   E   E   E   E   E   E
----------------------------------|
--14------14------14------14------|
----------------------------------|
------12------12------12------12--|
----------------------------------|
----------------------------------|


   T     T     T     T     T     T     T
   S  S  S  S  S  S  S  S  S  S  S  S  S  S
----------------------------------------------|
----------------------------------------------|
----------------------------------------------|
--------------------------------------12p-5---|
--12p-5-12p-7-12p-8-12p-5-12p-7-12p-8-------1-|
----------------------------------------------|


   T     T     T     T     T     T     T
   S  S  S  S  S  S  S  S  S  S  S  S  S  S
----------------------------------------------|
----------------------------------------------|
----------------------------------------------|
--------12p-5-12p-7-------12p-5-12p-7-12p-8-1-|
--12p-8-------------12p-8---------------------|
----------------------------------------------|


   S  S  S   S  S   S  S  S  S   S  S   S  S
----------------------------------------------|
----------------------------------------------|
----------------------------------------------|
------------------------------------------15--|p
--15p-8-15p-10-15p-11-15p-8-15p-10-15p-11-----|
----------------------------------------------|


   S   S  S  S  S   S  S   S  S  S  S   S  S
----------------------------------------------|
----------------------------------------------|
----------------------------------------------|
---------15p-8-15p-10--------15p-8-15p-10-15--|p
--15p-11--------------15p-11------------------|
----------------------------------------------|


   S   S  S   S  S   S  S   S  S   S  S   S
----------------------------------------------|
----------------------------------------------|
----------------------------------------------|
--------------------------------------------1-|
--18p-11-18p-13-18p-14-18p-11-18p-13-18p-14---|
----------------------------------------------|


   S   S  S   S  S   S  S   S  S   S  S   S
----------------------------------------------|
----------------------------------------------|
----------------------------------------------|
---------18p-11-18p-13--------18p-11-18p-13-1-|
--18p-14---------------18p-14-----------------|
----------------------------------------------|


   S   S  S   S  S   S  S   S  S   S  S   S
----------------------------------------------|
----------------------------------------------|
----------------------------------------------|
--------------------------------------------1-|
--18p-11-18p-13-18p-14-18p-11-18p-13-18p-14---|
----------------------------------------------|


   S   S  S   S  S   S  S   S  S   S  S   S
----------------------------------------------|
----------------------------------------------|
----------------------------------------------|
---------18p-11-18p-13--------18p-11-18p-13-1-|
--18p-14---------------18p-14-----------------|
----------------------------------------------|


   S  S  S  S  S  S  S  S  S  S  S  S  S  S
----------------------------------------------|
----------------------------------------------|
----------------------------------------------|
--------------------------------------12p-5---|
--12p-5-12p-7-12p-8-12p-5-12p-7-12p-8-------1-|
----------------------------------------------|


   S  S  S  S  S  S  S  S  S  S  S  S  S  S
----------------------------------------------|
----------------------------------------------|
----------------------------------------------|
--------12p-5-12p-7-------12p-5-12p-7-12p-8-1-|
--12p-8-------------12p-8---------------------|
----------------------------------------------|


   S  S  S  S  S  S  S  S  S  S  S  S  S  S
----------------------------------------------|
----------------------------------------------|
----------------------------------------------|
--12p-7-12p-3-12p-5---------------------------|
--------------------12p-7-12p-8-12p-5-12p-7-1-|
----------------------------------------------|


   S  S  S  S  S  S  S  S  S  S  S  S  S  S
----------------------------------------------|
----------------------------------------------|
----------------------------------------------|
--12p-7-12p-3-12p-5---------------------------|
--------------------12p-7-12p-8-12p-5-12p-7-1-|
----------------------------------------------|


   S  S  S  S  S  S  S  S  S  S  S  S  S  S
----------------------------------------------|
----------------------------------------------|
----------------------------------------------|
--12p-7-12p-3-12p-5---------------------------|
--------------------12p-7-12p-8-12p-5-12p-7-1-|
----------------------------------------------|


   S  S  S  S  S  S  S  S  S S  S  S  S  S  S
----------------------------------------------|
----------------------------------------------|
----------------------------------------------|
----------------------------------------------|
--12p-5-12p-2-12p-4-12p-0-12------------------|
-----------------------------5-12p-7-12p-3-12-|


           PM    PM PM
  H        E  E  S  S  E
--------------------------|
--------------------------|
--------------------------|
--0--------0-----0--0-----|
--0--------0-----0--0-----|
--0--------0-----0--0-----|


  W
-------------------||
-------------------||
-------------------||
--1----------------||
--1----------------||
--1----------------||




Duration Legend
---------------
W - whole
H - half
Q - quarter
E - 8th
S - 16th
T - 32nd
X - 64th
. - note dotted
|-n-|  - n-tuplets


Tablature Legend
----------------
L - tied note
x - dead note
g - grace note
(n) - ghost note
> - accentuded note
NH - natural harmonic
AH - artificial harmonic
TH - tapped harmonic
SH - semi harmonic
PH - pitch harmonic
h - hammer on
p - pull off
b - bend
br - bendRelease
pb - preBend
pbr - preBendRelease
brb - bendReleaseBend
\n/ - tremolo bar dip
\n - tremolo bar dive
-/n - tremolo bar Release up
/n\ - tremolo bar inverted dip
/n - tremolo bar return
-\n - tremolo bar Release down
S - shift slide
s - legato slide
/ -  slide into from below or out of upwards
\ -  slide into from above or out of downwards
~ - vibrato
W - wide vibrato
tr - trill
TP - tremolo picking
T - tapping
S - slap
P - pop
< - fade in
^ - brush up
v - brush down
comments
We did not receive enough feedback on this tab! Please rate:
print report bad tab
1 2 3 4 5
I want to post or [tab]
guest
You may want to rate the tab now too:
select rating
Please do not post tabs as comments. Select "correction" instead!