Oops, an error
Loading. Please wait.

The Parade Of Ashes Spencer Tab

1,226 views 76 this week
no commentswrite comment
1 2 3 4 5
excellent!
x 1
add to favorites launch autoscroll
font size
0
reset
Autoscroll
+/-
esc
set tempo
stop
Contributor
Difficulty
intermediate
WARNING: You are trying to view
                                    content from Ultimate-Guitar.com
                                    in an unauthorized application,
                                    which is prohibited.

                                    Please use an official Ultimate
                                    Guitar Tabs application for iPhone,
                                    iPad or Android to access legitimate
                                    chords, guitar, bass, and drum tabs
                                    from Ultimate-Guitar.com database.

                                    Type "ultimate guitar tabs" in Apple
                                    App Store's or Android Market's
                                    search to find the application.
----------------------------------------------------------------------------
                    The Parade of Ashes: Spencer
                              Periphery
----------------------------------------------------------------------------

Never thought Periphery would try the “pop” approach, but I have to say, it worked well. 
Down-tuned guitars with a nice groove (and an epic guitar solo) makes this an awesome. Enjoy!

Username: dkm817 (same on X box live)
Youtube Cover: http://www.youtube.com/watch?v=gRu6OssOUi8
Email: guitardrums@rockfan.com

Guitar 1 Rhythmic (G# D# G# C# F  A#)
Guitar 2 Lead     (G# D# G# C# F  A#)


NOTE: This was exported off of guitar pro.


Guitar 1


Synthesizer


              PM PM PM PM PM   PM PM PM PM PM PM PM
              S  S  S  S  S  S S  S  S  S  S  S  E  E
A#||-------|-------------------------------------------|-----|
F ||-------|-------------------------------------------|-----|
C#||-------|-------------------------------------------|-----|
G#||-------|-------------------------------------------|-----|
D#||-------|-------------------------------------------|-----|
G#||-------|--0--0--0--0--0----0--0--0--0--0--0--0-----|-----|


  PM PM PM PM PM   PM PM PM PM PM PM PM
  S  S  S  S  S  S S  S  S  S  S  S  E  E
-------------------------------------------|-----|
-------------------------------------------|-----|
-------------------------------------------|-----|
-------------------------------------------|-----|
-------------------------------------------|-----|
--0--0--0--0--0----0--0--0--0--0--0--0-----|-----|


Distortion Guitar


  PM PM PM PM PM   PM PM PM PM
  S  S  S  S  S  S S  S  S  S  E  E  E
----------------------------------------|-----|
----------------------------------------|-----|
----------------------------------------|-----|
----------------------------------------|-----|
----------------------------------------|-----|
--0--0--0--0--0----0--0--0--0--0--------|-----|


  PM PM PM PM PM   PM PM PM PM
  S  S  S  S  S  S S  S  S  S  E  E  E
----------------------------------------|-----|
----------------------------------------|-----|
----------------------------------------|-----|
----------------------------------------|-----|
----------------------------------------|-----|
--0--0--0--0--0----0--0--0--0--0--------|-----|


  PM PM PM PM PM   PM PM PM PM
  S  S  S  S  S  S S  S  S  S  E  E  E
----------------------------------------|-----|
----------------------------------------|-----|
----------------------------------------|-----|
----------------------------------------|-----|
----------------------------------------|-----|
--0--0--0--0--0----0--0--0--0--0--------|-----|


  PM PM PM PM PM   PM PM PM PM
  S  S  S  S  S  S S  S  S  S  E  E  E
----------------------------------------|-----|
----------------------------------------|-----|
----------------------------------------|-----|
----------------------------------------|-----|
----------------------------------------|-----|
--0--0--0--0--0----0--0--0--0--0--------|-----|


  PM PM PM PM PM   PM PM PM PM
  S  S  S  S  S  S S  S  S  S  E  E  E
----------------------------------------|-----|
----------------------------------------|-----|
----------------------------------------|-----|
----------------------------------------|-----|
----------------------------------------|-----|
--0--0--0--0--0----0--0--0--0--0--------|-----|


  PM PM PM PM PM   PM PM PM PM
  S  S  S  S  S  S S  S  S  S  E  E  E
----------------------------------------|-----|
----------------------------------------|-----|
----------------------------------------|-----|
----------------------------------------|-----|
----------------------------------------|-----|
--0--0--0--0--0----0--0--0--0--0--------|-----|


  PM PM PM PM PM   PM PM PM PM
  S  S  S  S  S  S S  S  S  S  E  E  E
----------------------------------------|-----|
----------------------------------------|-----|
----------------------------------------|-----|
----------------------------------------|-----|
----------------------------------------|-----|
--0--0--0--0--0----0--0--0--0--0--------|-----|


  PM PM PM PM PM   PM PM PM PM
  S  S  S  S  S  S S  S  S  S  E  E  E
----------------------------------------|-----|
----------------------------------------|-----|
----------------------------------------|-----|
----------------------------------------|-----|
----------------------------------------|-----|
--0--0--0--0--0----0--0--0--0--0--------|-----|


  PM PM PM PM PM   PM PM PM PM
  S  S  S  S  S  S S  S  S  S  E  E  E
----------------------------------------|-----|
----------------------------------------|-----|
----------------------------------------|-----|
----------------------------------------|-----|
----------------------------------------|-----|
--0--0--0--0--0----0--0--0--0--0--------|-----|


  PM PM PM PM PM   PM PM PM PM
  S  S  S  S  S  S S  S  S  S  E  E  E           E  E  E  E  E  E  E  E
----------------------------------------|-----|--------------------------|
----------------------------------------|-----|--------------------------|
----------------------------------------|-----|--------------------------|
----------------------------------------|-----|--8--8--8--8--0--0--0--0--|
----------------------------------------|-----|--8--8--8--8--0--0--0--0--|
--0--0--0--0--0----0--0--0--0--0--------|-----|--8--8--8--8--0--0--0--0--|


                                         PM PM PM PM PM   PM PM PM PM
  E  E  E  E  E  E  E  E                 S  S  S  S  S  S S  S  S  S  E  E  E
--------------------------|-----|-----|----------------------------------------|
--------------------------|-----|-----|----------------------------------------|
--7--7--7--7--6--6--6--6--|-----|-----|----------------------------------------|
--7--7--7--7--6--6--6--6--|-----|-----|----------------------------------------|
--5--5--5--5--4--4--4--4--|-----|-----|----------------------------------------|
--------------------------|-----|-----|--0--0--0--0--0----0--0--0--0--0--------|


        E  E  E  E  E  E  E  E     E  E  E  E  E  E  E  E
-----|--------------------------|--------------------------|
-----|--------------------------|--------------------------|
-----|--------------------------|--------------------------|
-----|--------------------------|--------------------------|
-----|--------------------------|--------------------------|
-----|--0--3--0-----0-----0--3--|--0--3--0-----0-----0-----|


  E  E  E  E  E  E  E  E     E  E  E  E  E  E  E  E
--------------------------|--------------------------|
--------------------------|--------------------------|
--------------------------|--------------------------|
--------------------------|--------------------------|
--------------------------|--------------------------|
--0--3--0--3--0-----0--3--|--0--3--0-----0--3--0--3--|


  E  E  E  E  E  E  E  E     E  E  E  E  E  E  E  E
--------------------------|--------------------------|
--------------------------|--------------------------|
--------------------------|--------------------------|
--------------------------|--------------------------|
--------------------------|--------------------------|
--0--3--0-----0-----0--3--|--0--3--0-----0-----0-----|


  E  E  E  E  E  E  E  E     E  E  E  E  E  E  E  E
--------------------------|--------------------------|
--------------------------|--------------------------|
--------------------------|--------------------------|
--------------------------|--------------------------|
--------------------------|--------------------------|
--0--3--0--3--0-----0--3--|--0--3--0-----0--3--0--3--|


  E  E  E  E  E  E  E  E     E  E  E  E  E  E  E  E
--------------------------|--------------------------|
--------------------------|--------------------------|
--------------------------|--------------------------|
--------------------------|--------------------------|
--1--x--1--x--x--1--x--1--|-----------------4--x--4--|
--------------------------|--2--x--2--x--x-----------|


Synthesizer


  PM PM PM PM PM   PM PM PM PM PM
  S  S  S  S  S  S S  S  S  S  E  E  E
----------------------------------------|-----|
----------------------------------------|-----|
----------------------------------------|-----|
----------------------------------------|-----|
----------------------------------------|-----|
--0--0--0--0--0----0--0--0--0--0--------|-----|


  PM PM PM PM PM   PM PM PM PM PM                PM PM    PM PM PM
  S  S  S  S  S  S S  S  S  S  E  E  E           E  E  E  E  E  E  E  E
----------------------------------------|-----|--------------------------|-----|
----------------------------------------|-----|--------------------------|-----|
----------------------------------------|-----|--------------------------|-----|
----------------------------------------|-----|--------------------------|-----|
----------------------------------------|-----|--------------------------|-----|
--0--0--0--0--0----0--0--0--0--0--------|-----|--0--0-----0--0--0--------|-----|


                                Distortion Guitar


  PM PM    PM PM PM                PM PM PM PM PM   PM PM PM PM
  E  E  E  E  E  E  E  E           S  S  S  S  S  S S  S  S  S  E  E  E
--------------------------|-----|----------------------------------------|-----|
--------------------------|-----|----------------------------------------|-----|
--------------------------|-----|----------------------------------------|-----|
--------------------------|-----|----------------------------------------|-----|
--------------------------|-----|----------------------------------------|-----|
--0--0-----0--0--0--------|-----|--0--0--0--0--0----0--0--0--0--0--------|-----|


  PM PM PM PM PM   PM PM PM PM
  S  S  S  S  S  S S  S  S  S  E  E  E
----------------------------------------|-----|
----------------------------------------|-----|
----------------------------------------|-----|
----------------------------------------|-----|
----------------------------------------|-----|
--0--0--0--0--0----0--0--0--0--0--------|-----|


  PM PM PM PM PM   PM PM PM PM
  S  S  S  S  S  S S  S  S  S  E  E  E
----------------------------------------|-----|
----------------------------------------|-----|
----------------------------------------|-----|
----------------------------------------|-----|
----------------------------------------|-----|
--0--0--0--0--0----0--0--0--0--0--------|-----|


  PM PM PM PM PM   PM PM PM PM
  S  S  S  S  S  S S  S  S  S  E  E  E           E  E  E  E  E  E  E  E
----------------------------------------|-----|--------------------------|
----------------------------------------|-----|--------------------------|
----------------------------------------|-----|--------------------------|
----------------------------------------|-----|--8--8--8--8--0--0--0--0--|
----------------------------------------|-----|--8--8--8--8--0--0--0--0--|
--0--0--0--0--0----0--0--0--0--0--------|-----|--8--8--8--8--0--0--0--0--|


                             PM PM PM PM PM   PM PM PM PM
  E  E  E  E  E  E  E  E     S  S  S  S  S  S S  S  S  S  E  E  E
--------------------------|----------------------------------------|-----|
--------------------------|----------------------------------------|-----|
--7--7--7--7--6--6--6--6--|----------------------------------------|-----|
--7--7--7--7--6--6--6--6--|----------------------------------------|-----|
--5--5--5--5--4--4--4--4--|----------------------------------------|-----|
--------------------------|--0--0--0--0--0----0--0--0--0--0--------|-----|


  E  E  E  E  E  E  E  E     E  E  E  E  E  E  E  E
--------------------------|--------------------------|
--------------------------|--------------------------|
--------------------------|--------------------------|
--------------------------|--------------------------|
--------------------------|--------------------------|
--0--3--0-----0-----0--3--|--0--3--0-----0-----0-----|


  E  E  E  E  E  E  E  E     E  E  E  E  E  E  E  E
--------------------------|--------------------------|
--------------------------|--------------------------|
--------------------------|--------------------------|
--------------------------|--------------------------|
--------------------------|--------------------------|
--0--3--0--3--0-----0--3--|--0--3--0-----0--3--0--3--|


  E  E  E  E  E  E  E  E     E  E  E  E  E  E  E  E
--------------------------|--------------------------|
--------------------------|--------------------------|
--------------------------|--------------------------|
--------------------------|--------------------------|
--------------------------|--------------------------|
--0--3--0-----0-----0--3--|--0--3--0-----0-----0-----|


  E  E  E  E  E  E  E  E     E  E  E  E  E  E  E  E
--------------------------|--------------------------|
--------------------------|--------------------------|
--------------------------|--------------------------|
--------------------------|--------------------------|
--------------------------|--------------------------|
--0--3--0--3--0-----0--3--|--0--3--0-----0--3--0--3--|


  E  E  E  E  E  E  E  E     E  E  E  E  E  E  E  E
--------------------------|--------------------------|
--------------------------|--------------------------|
--------------------------|--------------------------|
--------------------------|--------------------------|
--1--x--1--x--x--1--x--1--|-----------------4--x--4--|
--------------------------|--2--x--2--x--x-----------|


  E  E  E  E  E  E  E  E     E  E  E  E  E  E  E  E
--------------------------|--------------------------|
--------------------------|--------------------------|
--------------------------|--------------------------|
--------------------------|--------------------------|
--------------------------|--------------------------|
--0--3--0-----0-----0--3--|--0--3--0-----0-----0-----|


  E  E  E  E  E  E  E  E     E  E  E  E  E  E  E  E
--------------------------|--------------------------|
--------------------------|--------------------------|
--------------------------|--------------------------|
--------------------------|--------------------------|
--------------------------|--------------------------|
--0--3--0--3--0-----0--3--|--0--3--0-----0--3--0--3--|


  E  E  E  E  E  E  E  E     E  E  E  E  E  E  E  E
--------------------------|--------------------------|
--------------------------|--------------------------|
--------------------------|--------------------------|
--------------------------|--------------------------|
--------------------------|--------------------------|
--0--3--0-----0-----0--3--|--0--3--0-----0-----0-----|


  E  E  E  E  E  E  E  E     E  E  E  E  E  E  E  E
--------------------------|--------------------------|
--------------------------|--------------------------|
--------------------------|--------------------------|
--------------------------|--------------------------|
--------------------------|--------------------------|
--0--3--0--3--0-----0--3--|--0--3--0-----0--3--0--3--|


  E  E  E  E  E  E  E  E     E  E  E  E  E  E  E  E     Q    Q    Q    Q
--------------------------|--------------------------|----------------------|
--------------------------|--------------------------|----------------------|
--------------------------|--------------------------|----------------------|
--------------------------|--------------------------|----------------------|
--1--x--1--x--x--1--x--1--|-----------------4--x--4--|----------------------|
--------------------------|--2--x--2--x--x-----------|--0-------------------|


          Q    Q    Q    Q               Q    Q    Q    Q
-------|----------------------|-------|----------------------|
-------|----------------------|-------|----------------------|
-------|----------------------|-------|----------------------|
-------|----------------------|-------|----------------------|
-------|----------------------|-------|----------------------|
-------|--0-------------------|-------|--0-------------------|


  Q    Q    Q    Q       Q    Q    Q    Q
----------------------|----------------------|-------|
----------------------|----------------------|-------|
----------------------|----------------------|-------|
----------------------|----------------------|-------|
----------------------|----------------------|-------|
--0----0--------------|--0-------------------|-------|


  S S S S S E  S S S E  S S E     S S S E  S E  S S S S S S E
-------------------------------|-------------------------------|
-------------------------------|-------------------------------|
-------------------------------|-------------------------------|
-------------------------------|-------------------------------|
-------------------------------|-------------------------------|
--0-0-0-0---8--0-0-0-4--0-0-4--|--0-0-0-1--0-4--1-0-0-1-0-0-4--|


  S S S S S E  S S S E  S S E     S S S E  S E  S S S S S S E
-------------------------------|-------------------------------|
-------------------------------|-------------------------------|
-------------------------------|-------------------------------|
-------------------------------|-------------------------------|
-------------------------------|-------------------------------|
--0-0-0-0---8--0-0-0-4--0-0-4--|--0-0-0-1--0-4--1-0-0-1-0-0-4--|


  S S S S S E  S S S E  S S E     S S S E  S E  S S S S S S E
-------------------------------|-------------------------------|
-------------------------------|-------------------------------|
-------------------------------|-------------------------------|
-------------------------------|-------------------------------|
-------------------------------|-------------------------------|
--0-0-0-0---8--0-0-0-4--0-0-4--|--0-0-0-1--0-4--1-0-0-1-0-0-4--|


  S S S S S E  S S S E  S S E     S S S E  S E  S S S S S S E
-------------------------------|-------------------------------|
-------------------------------|-------------------------------|
-------------------------------|-------------------------------|
-------------------------------|-------------------------------|
-------------------------------|-------------------------------|
--0-0-0-0---8--0-0-0-4--0-0-4--|--0-0-0-1--0-4--1-0-0-1-0-0-4--|


   S  S S  S  S S E   S  S S  S  S S  S  S    S E  S  S S  S  S S Q    S  S S
-------------------------------------------|----------------------------------|
-------------------------------------------|----------------------------------|
-------------------------------------------|----------------------------------|
-------------------------------------------|----------------------------------|
-------------------------------------------|----------------------------------|
--12-12-0-12-12-0----12-12-0-12-12-0-12-12-|--0----0-12-0-12-12-0------0-12-0-|


   S S S  S S S  S S S  S S S  S S  S  S    S S S S S S S S S S S S S S S S
-----------------------------------------|----------------------------------|
-----------------------------------------|----------------------------------|
-----------------------------------------|----------------------------------|
-----------------------------------------|----------------------------------|
-----------------------------------------|----------------------------------|
--10-0-0-12-0-0-13-0-0-12-0-0-10-0-10-12-|--5-5-1-5-5-1-1---1-0-0-1-0-0-1-4-|


   S  S S  S  S S E   S  S S  S  S S  S  S    S E  S  S S  S  S S Q    S  S S
-------------------------------------------|----------------------------------|
-------------------------------------------|----------------------------------|
-------------------------------------------|----------------------------------|
-------------------------------------------|----------------------------------|
-------------------------------------------|----------------------------------|
--12-12-0-12-12-0----12-12-0-12-12-0-12-12-|--0----0-12-0-12-12-0------0-12-0-|


   S S S  S S S  S S S  S S S  S S  S  S    S S S S S S S S S S S S S S S S
-----------------------------------------|----------------------------------|
-----------------------------------------|----------------------------------|
-----------------------------------------|----------------------------------|
-----------------------------------------|----------------------------------|
-----------------------------------------|----------------------------------|
--10-0-0-12-0-0-13-0-0-12-0-0-10-0-10-12-|--5-5-1-5-5-1-1---1-0-0-1-0-0-1-4-|


   S  S S  S  S S E   S  S S  S  S S  S  S    S E  S  S S  S  S S Q    S  S S
-------------------------------------------|----------------------------------|
-------------------------------------------|----------------------------------|
-------------------------------------------|----------------------------------|
-------------------------------------------|----------------------------------|
-------------------------------------------|----------------------------------|
--12-12-0-12-12-0----12-12-0-12-12-0-12-12-|--0----0-12-0-12-12-0------0-12-0-|


   S S S  S S S  S S S  S S S  S S  S  S    S S S S S S S S S S S S S S S S
-----------------------------------------|----------------------------------|
-----------------------------------------|----------------------------------|
-----------------------------------------|----------------------------------|
-----------------------------------------|----------------------------------|
-----------------------------------------|----------------------------------|
--10-0-0-12-0-0-13-0-0-12-0-0-10-0-10-12-|--5-5-1-5-5-1-1---1-0-0-1-0-0-1-4-|


   S  S S  S  S S E   S  S S  S  S S  S  S    S E  S  S S  S  S S Q    S  S S
-------------------------------------------|----------------------------------|
-------------------------------------------|----------------------------------|
-------------------------------------------|----------------------------------|
-------------------------------------------|----------------------------------|
-------------------------------------------|----------------------------------|
--12-12-0-12-12-0----12-12-0-12-12-0-12-12-|--0----0-12-0-12-12-0------0-12-0-|


   S S S  S S S  S S S  S S S  S S  S  S    S S S S S S S S S S S S S S S S
-----------------------------------------|----------------------------------|
-----------------------------------------|----------------------------------|
-----------------------------------------|----------------------------------|
-----------------------------------------|----------------------------------|
-----------------------------------------|----------------------------------|
--10-0-0-12-0-0-13-0-0-12-0-0-10-0-10-12-|--5-5-1-5-5-1-1---1-0-0-1-0-0-1-4-|


                      PM PM PM PM PM   PM PM PM PM
                      S  S  S  S  S  S S  S  S  S  E  E  E
----|----|----|----|----------------------------------------|-----|
----|----|----|----|----------------------------------------|-----|
----|----|----|----|----------------------------------------|-----|
----|----|----|----|----------------------------------------|-----|
----|----|----|----|----------------------------------------|-----|
----|----|----|----|--0--0--0--0--0----0--0--0--0--0--------|-----|


  PM PM PM PM PM   PM PM PM PM
  S  S  S  S  S  S S  S  S  S  E  E  E
----------------------------------------|-----|
----------------------------------------|-----|
----------------------------------------|-----|
----------------------------------------|-----|
----------------------------------------|-----|
--0--0--0--0--0----0--0--0--0--0--------|-----|


  PM PM PM PM PM   PM PM PM PM
  S  S  S  S  S  S S  S  S  S  E  E  E
----------------------------------------|-----|
----------------------------------------|-----|
----------------------------------------|-----|
----------------------------------------|-----|
----------------------------------------|-----|
--0--0--0--0--0----0--0--0--0--0--------|-----|


  PM PM PM PM PM   PM PM PM PM
  S  S  S  S  S  S S  S  S  S  E  E  E
----------------------------------------|-----|
----------------------------------------|-----|
----------------------------------------|-----|
----------------------------------------|-----|
----------------------------------------|-----|
--0--0--0--0--0----0--0--0--0--0--------|-----|


  PM PM PM PM PM   PM PM PM PM
  S  S  S  S  S  S S  S  S  S  E  E  E
----------------------------------------|-----|
----------------------------------------|-----|
----------------------------------------|-----|
----------------------------------------|-----|
----------------------------------------|-----|
--0--0--0--0--0----0--0--0--0--0--------|-----|


  PM PM PM PM PM   PM PM PM PM
  S  S  S  S  S  S S  S  S  S  E  E  E
----------------------------------------|-----|
----------------------------------------|-----|
----------------------------------------|-----|
----------------------------------------|-----|
----------------------------------------|-----|
--0--0--0--0--0----0--0--0--0--0--------|-----|


  PM PM PM PM PM   PM PM PM PM
  S  S  S  S  S  S S  S  S  S  E  E  E
----------------------------------------|-----|
----------------------------------------|-----|
----------------------------------------|-----|
----------------------------------------|-----|
----------------------------------------|-----|
--0--0--0--0--0----0--0--0--0--0--------|-----|


  PM PM PM PM PM   PM PM PM PM
  S  S  S  S  S  S S  S  S  S  E  E  E           W
----------------------------------------|-----|-------------------|
----------------------------------------|-----|-------------------|
----------------------------------------|-----|--3----------------|
----------------------------------------|-----|--3----------------|
----------------------------------------|-----|--1----------------|
--0--0--0--0--0----0--0--0--0--0--------|-----|-------------------|


  W                   W                   W                   W
-------------------|-------------------|-------------------|-------------------|
-------------------|-------------------|-------------------|-------------------|
--5----------------|--7----------------|--L----------------|--3----------------|
--5----------------|--7----------------|--L----------------|--3----------------|
--3----------------|--5----------------|--L----------------|--1----------------|
-------------------|-------------------|-------------------|-------------------|


  W                   Q    Q     Q    Q
-------------------|-----------------------|-------------------|
-------------------|-----------------------|-------------------|
--2----------------|--7----L\--------------|-------------------|
--2----------------|--7----L\--------------|-------------------|
--0----------------|--5----L\--------------|-------------------|
-------------------|-----------------------|-------------------|


  E  E  E  E  E  E  E  E     E  E  E  E  E  E  E  E
--------------------------|--------------------------|
--------------------------|--------------------------|
--------------------------|--------------------------|
--------------------------|--------------------------|
--------------------------|--------------------------|
--0--3--0-----0-----0--3--|--0--3--0-----0-----0-----|


  E  E  E  E  E  E  E  E     E  E  E  E  E  E  E  E
--------------------------|--------------------------|
--------------------------|--------------------------|
--------------------------|--------------------------|
--------------------------|--------------------------|
--------------------------|--------------------------|
--0--3--0--3--0-----0--3--|--0--3--0-----0--3--0--3--|


  E  E  E  E  E  E  E  E     E  E  E  E  E  E  E  E
--------------------------|--------------------------|
--------------------------|--------------------------|
--------------------------|--------------------------|
--------------------------|--------------------------|
--------------------------|--------------------------|
--0--3--0-----0-----0--3--|--0--3--0-----0-----0-----|


  E  E  E  E  E  E  E  E     E  E  E  E  E  E  E  E
--------------------------|--------------------------|
--------------------------|--------------------------|
--------------------------|--------------------------|
--------------------------|--------------------------|
--------------------------|--------------------------|
--0--3--0--3--0-----0--3--|--0--3--0-----0--3--0--3--|


  E  E  E  E  E  E  E  E     E  E  E  E  E  E  E  E
--------------------------|---------------------------|
--------------------------|---------------------------|
--------------------------|---------------------------|
--------------------------|---------------------------|
--1--x--1--x--x--1--x--1--|--x--1--x--1--3--x--3--L\--|
--------------------------|---------------------------|


  E  E  E  E  E  E  E  E     E  E  E  E  E  E  E  E
--------------------------|--------------------------|
--------------------------|--------------------------|
--------------------------|--------------------------|
--------------------------|--------------------------|
--------------------------|--------------------------|
--0--3--0-----0-----0--3--|--0--3--0-----0-----0-----|


  E  E  E  E  E  E  E  E     E  E  E  E  E  E  E  E
--------------------------|--------------------------|
--------------------------|--------------------------|
--------------------------|--------------------------|
--------------------------|--------------------------|
--------------------------|--------------------------|
--0--3--0--3--0-----0--3--|--0--3--0-----0--3--0--3--|


  E  E  E  E  E  E  E  E     E  E  E  E  E  E  E  E
--------------------------|--------------------------|
--------------------------|--------------------------|
--------------------------|--------------------------|
--------------------------|--------------------------|
--------------------------|--------------------------|
--0--3--0-----0-----0--3--|--0--3--0-----0-----0-----|


  E  E  E  E  E  E  E  E     E  E  E  E  E  E  E  E
--------------------------|--------------------------|
--------------------------|--------------------------|
--------------------------|--------------------------|
--------------------------|--------------------------|
--------------------------|--------------------------|
--0--3--0--3--0-----0--3--|--0--3--0-----0--3--0--3--|


  E  E  E  E  E  E  E  E     E  E  E  E  E  E  E  E
--------------------------|--------------------------|
--------------------------|--------------------------|
--------------------------|--------------------------|
--------------------------|--------------------------|
--1--x--1--x--x--1--x--1--|-----------------4--x--4--|
--------------------------|--2--x--2--x--x-----------|


  E  E  E  E  E  E  E  E     E  E  E  E  E  E  E  E
--------------------------|--------------------------|
--------------------------|--------------------------|
--------------------------|--------------------------|
--------------------------|--------------------------|
--------------------------|--------------------------|
--0--3--0-----0-----0--3--|--0--3--0-----0-----0-----|


  E  E  E  E  E  E  E  E     E  E  E  E  E  E  E  E
--------------------------|--------------------------|
--------------------------|--------------------------|
--------------------------|--------------------------|
--------------------------|--------------------------|
--------------------------|--------------------------|
--0--3--0--3--0-----0--3--|--0--3--0-----0--3--0--3--|


  E  E  E  E  E  E  E  E     E  E  E  E  E  E  E  E
--------------------------|--------------------------|
--------------------------|--------------------------|
--------------------------|--------------------------|
--------------------------|--------------------------|
--------------------------|--------------------------|
--0--3--0-----0-----0--3--|--0--3--0-----0-----0-----|


  E  E  E  E  E  E  E  E     E  E  E  E  E  E  E  E
--------------------------|--------------------------|
--------------------------|--------------------------|
--------------------------|--------------------------|
--------------------------|--------------------------|
--------------------------|--------------------------|
--0--3--0--3--0-----0--3--|--0--3--0-----0--3--0--3--|


  E  E  E  E  E  E  E  E     E  E  E  E  E  E  E  E
--------------------------|--------------------------|
--------------------------|--------------------------|
--------------------------|--------------------------|
--------------------------|--------------------------|
--1--x--1--x--x--1--x--1--|-----------------4--x--4--|
--------------------------|--2--x--2--x--x-----------|


   S  S S  S  S S E   S  S S  S  S S  S  S    S E  S  S S  S  S S Q    S  S S
-------------------------------------------|----------------------------------|
-------------------------------------------|----------------------------------|
-------------------------------------------|----------------------------------|
-------------------------------------------|----------------------------------|
-------------------------------------------|----------------------------------|
--12-12-0-12-12-0----12-12-0-12-12-0-12-12-|--0----0-12-0-12-12-0------0-12-0-|


   S S S  S S S  S S S  S S S  S S  S  S    S S S S S S S S S S S S S S S S
-----------------------------------------|----------------------------------|
-----------------------------------------|----------------------------------|
-----------------------------------------|----------------------------------|
-----------------------------------------|----------------------------------|
-----------------------------------------|----------------------------------|
--10-0-0-12-0-0-13-0-0-12-0-0-10-0-10-12-|--5-5-1-5-5-1-1---1-0-0-1-0-0-1-4-|


----||
----||
----||
----||
----||
----||


Guitar 2

(Starts at 00:09)


Distortion Guitar


  PM PM PM PM PM   PM PM PM PM
  S  S  S  S  S  S S  S  S  S  E  E  E
----------------------------------------|-----|
----------------------------------------|-----|
----------------------------------------|-----|
----------------------------------------|-----|
----------------------------------------|-----|
--0--0--0--0--0----0--0--0--0--0--------|-----|


  PM PM PM PM PM   PM PM PM PM
  S  S  S  S  S  S S  S  S  S  E  E  E
----------------------------------------|-----|
----------------------------------------|-----|
----------------------------------------|-----|
----------------------------------------|-----|
----------------------------------------|-----|
--0--0--0--0--0----0--0--0--0--0--------|-----|


  PM PM PM PM PM   PM PM PM PM
  S  S  S  S  S  S S  S  S  S  E  E  E
----------------------------------------|-----|
----------------------------------------|-----|
----------------------------------------|-----|
----------------------------------------|-----|
----------------------------------------|-----|
--0--0--0--0--0----0--0--0--0--0--------|-----|


  PM PM PM PM PM   PM PM PM PM
  S  S  S  S  S  S S  S  S  S  E  E  E
----------------------------------------|-----|
----------------------------------------|-----|
----------------------------------------|-----|
----------------------------------------|-----|
----------------------------------------|-----|
--0--0--0--0--0----0--0--0--0--0--------|-----|


  PM PM PM PM PM   PM PM PM PM
  S  S  S  S  S  S S  S  S  S  E  E  E
----------------------------------------|-----|
----------------------------------------|-----|
----------------------------------------|-----|
----------------------------------------|-----|
----------------------------------------|-----|
--0--0--0--0--0----0--0--0--0--0--------|-----|


  PM PM PM PM PM   PM PM PM PM
  S  S  S  S  S  S S  S  S  S  E  E  E
----------------------------------------|-----|
----------------------------------------|-----|
----------------------------------------|-----|
----------------------------------------|-----|
----------------------------------------|-----|
--0--0--0--0--0----0--0--0--0--0--------|-----|


  PM PM PM PM PM   PM PM PM PM
  S  S  S  S  S  S S  S  S  S  E  E  E
----------------------------------------|-----|
----------------------------------------|-----|
----------------------------------------|-----|
----------------------------------------|-----|
----------------------------------------|-----|
--0--0--0--0--0----0--0--0--0--0--------|-----|


  PM PM PM PM PM   PM PM PM PM
  S  S  S  S  S  S S  S  S  S  E  E  E
----------------------------------------|-----|
----------------------------------------|-----|
----------------------------------------|-----|
----------------------------------------|-----|
----------------------------------------|-----|
--0--0--0--0--0----0--0--0--0--0--------|-----|


  PM PM PM PM PM   PM PM PM PM
  S  S  S  S  S  S S  S  S  S  E  E  E
----------------------------------------|-----|
----------------------------------------|-----|
----------------------------------------|-----|
----------------------------------------|-----|
----------------------------------------|-----|
--0--0--0--0--0----0--0--0--0--0--------|-----|


  PM PM PM PM PM   PM PM PM PM
  S  S  S  S  S  S S  S  S  S  E  E  E           E  E  E  E  E  E  E  E
----------------------------------------|-----|--------------------------|
----------------------------------------|-----|--------------------------|
----------------------------------------|-----|--------------------------|
----------------------------------------|-----|--8--8--8--8--0--0--0--0--|
----------------------------------------|-----|--8--8--8--8--0--0--0--0--|
--0--0--0--0--0----0--0--0--0--0--------|-----|--8--8--8--8--0--0--0--0--|


                             PM PM PM PM PM   PM PM PM PM
  E  E  E  E  E  E  E  E     S  S  S  S  S  S S  S  S  S  E  E  E
--------------------------|----------------------------------------|-----|-----|
--------------------------|----------------------------------------|-----|-----|
--7--7--7--7--6--6--6--6--|----------------------------------------|-----|-----|
--7--7--7--7--6--6--6--6--|----------------------------------------|-----|-----|
--5--5--5--5--4--4--4--4--|----------------------------------------|-----|-----|
--------------------------|--0--0--0--0--0----0--0--0--0--0--------|-----|-----|


        E  E  E  E  E  E  E  E     E  E  E  E  E  E  E  E
-----|--------------------------|--------------------------|
-----|--------------------------|--------------------------|
-----|--------------------------|--------------------------|
-----|--------------------------|--------------------------|
-----|--------------------------|--------------------------|
-----|--0--3--0-----0-----0--3--|--0--3--0-----0-----0-----|


  E  E  E  E  E  E  E  E     E  E  E  E  E  E  E  E
--------------------------|--------------------------|
--------------------------|--------------------------|
--------------------------|--------------------------|
--------------------------|--------------------------|
--------------------------|--------------------------|
--0--3--0--3--0-----0--3--|--0--3--0-----0--3--0--3--|


  E  E  E  E  E  E  E  E     E  E  E  E  E  E  E  E
--------------------------|--------------------------|
--------------------------|--------------------------|
--------------------------|--------------------------|
--------------------------|--------------------------|
--------------------------|--------------------------|
--0--3--0-----0-----0--3--|--0--3--0-----0-----0-----|


  E  E  E  E  E  E  E  E     E  E  E  E  E  E  E  E
--------------------------|--------------------------|
--------------------------|--------------------------|
--------------------------|--------------------------|
--------------------------|--------------------------|
--------------------------|--------------------------|
--0--3--0--3--0-----0--3--|--0--3--0-----0--3--0--3--|


  E  E  E  E  E  E  E  E     E  E  E  E  E  E  E  E
--------------------------|--------------------------|-----|-----|-----|-----|
--------------------------|--------------------------|-----|-----|-----|-----|
--------------------------|--------------------------|-----|-----|-----|-----|
--------------------------|--------------------------|-----|-----|-----|-----|
--1--x--1--x--x--1--x--1--|-----------------4--x--4--|-----|-----|-----|-----|
--------------------------|--2--x--2--x--x-----------|-----|-----|-----|-----|


Piano


   E   E   E   Q     E   E   E     E   E   E   E   E   E   E   E
--------------------------------|---------------------20----------|
--22------20--19--------20--19--|--L----------20--19------19--22--|
--19--17------------17----------|-----19--17------------------19--|
--------------------------------|---------------------------------|
--------------------------------|---------------------------------|
--------------------------------|---------------------------------|


  E   E   E   Q     E   E   E      Q     E   E   E   E   E   E
-------------------------------|--------------------------------|
--L------20--19------------20--|--19------------20--19----------|
--L--17------------19--17------|--------19--17----------19--17--|
-------------------------------|--------------------------------|
-------------------------------|--------------------------------|
-------------------------------|--------------------------------|


   E   E   E   E   E   E   E   E     E   E   E   E   E   E   E   E
----------------------------------|---------------------20----------|
--22--19--20--19--20--19--20------|-----19--20--19--20------20--22--|
--19--------------------------17--|--L--------------------------19--|
----------------------------------|---------------------------------|
----------------------------------|---------------------------------|
----------------------------------|---------------------------------|


  E   E   E   Q     E   E   E      Q     E   E   E   E   E   E
-------------------------------|--------------------------------|
--L------20--19------------20--|--19------------20--19----------|
--L--17------------19--17------|--------19--17----------19--17--|
-------------------------------|--------------------------------|
-------------------------------|--------------------------------|
-------------------------------|--------------------------------|


   E   E   E   E   E   E   E   E     E   E   E   E   E   E   E   E
----------------------------------|-----------------20--------------|
--22--19--20--19--20--19--20------|-----19--20--19------19--20--22--|
--19--------------------------17--|--L--------------------------19--|
----------------------------------|---------------------------------|
----------------------------------|---------------------------------|
----------------------------------|---------------------------------|


  E   E   E   Q     E   E   E      Q     E   E   E   E   E   E
-------------------------------|--------------------------------|
--L------20--19------------20--|--19------------20--19----------|
--L--17------------19--17------|--------19--17----------19--17--|
-------------------------------|--------------------------------|
-------------------------------|--------------------------------|
-------------------------------|--------------------------------|


Distortion Guitar


  E  E  E  E  E  E  E  E     E  E  E  E  E  E  E  E
--------------------------|--------------------------|
--------------------------|--------------------------|
--------------------------|--7--7--7--7--6--6--6--6--|
--8--8--8--8--0--0--0--0--|--7--7--7--7--6--6--6--6--|
--8--8--8--8--0--0--0--0--|--5--5--5--5--4--4--4--4--|
--8--8--8--8--0--0--0--0--|--------------------------|


  PM PM PM PM PM   PM PM PM PM
  S  S  S  S  S  S S  S  S  S  E  E  E           E  E  E  E  E  E  E  E
----------------------------------------|-----|--------------------------|
----------------------------------------|-----|--------------------------|
----------------------------------------|-----|--------------------------|
----------------------------------------|-----|--------------------------|
----------------------------------------|-----|--------------------------|
--0--0--0--0--0----0--0--0--0--0--------|-----|--0--3--0-----0-----0--3--|


  E  E  E  E  E  E  E  E     E  E  E  E  E  E  E  E
--------------------------|--------------------------|
--------------------------|--------------------------|
--------------------------|--------------------------|
--------------------------|--------------------------|
--------------------------|--------------------------|
--0--3--0-----0-----0-----|--0--3--0--3--0-----0--3--|


  E  E  E  E  E  E  E  E     E  E  E  E  E  E  E  E
--------------------------|--------------------------|
--------------------------|--------------------------|
--------------------------|--------------------------|
--------------------------|--------------------------|
--------------------------|--------------------------|
--0--3--0-----0--3--0--3--|--0--3--0-----0-----0--3--|


  E  E  E  E  E  E  E  E     E  E  E  E  E  E  E  E
--------------------------|--------------------------|
--------------------------|--------------------------|
--------------------------|--------------------------|
--------------------------|--------------------------|
--------------------------|--------------------------|
--0--3--0-----0-----0-----|--0--3--0--3--0-----0--3--|


  E  E  E  E  E  E  E  E     E  E  E  E  E  E  E  E
--------------------------|--------------------------|
--------------------------|--------------------------|
--------------------------|--------------------------|
--------------------------|--------------------------|
--------------------------|--1--x--1--x--x--1--x--1--|
--0--3--0-----0--3--0--3--|--------------------------|


  E  E  E  E  E  E  E  E     E  E  E  E  E  E  E  E
--------------------------|--------------------------|
--------------------------|--------------------------|
--------------------------|--------------------------|
--------------------------|--------------------------|
-----------------4--x--4--|--------------------------|
--2--x--2--x--x-----------|--0--3--0-----0-----0--3--|


  E  E  E  E  E  E  E  E     E  E  E  E  E  E  E  E
--------------------------|--------------------------|
--------------------------|--------------------------|
--------------------------|--------------------------|
--------------------------|--------------------------|
--------------------------|--------------------------|
--0--3--0-----0-----0-----|--0--3--0--3--0-----0--3--|


  E  E  E  E  E  E  E  E     E  E  E  E  E  E  E  E
--------------------------|--------------------------|
--------------------------|--------------------------|
--------------------------|--------------------------|
--------------------------|--------------------------|
--------------------------|--------------------------|
--0--3--0-----0--3--0--3--|--0--3--0-----0-----0--3--|


  E  E  E  E  E  E  E  E     E  E  E  E  E  E  E  E
--------------------------|--------------------------|
--------------------------|--------------------------|
--------------------------|--------------------------|
--------------------------|--------------------------|
--------------------------|--------------------------|
--0--3--0-----0-----0-----|--0--3--0--3--0-----0--3--|


  E  E  E  E  E  E  E  E     E  E  E  E  E  E  E  E
--------------------------|--------------------------|
--------------------------|--------------------------|
--------------------------|--------------------------|
--------------------------|--------------------------|
--------------------------|--1--x--1--x--x--1--x--1--|
--0--3--0-----0--3--0--3--|--------------------------|


  E  E  E  E  E  E  E  E     Q    Q    Q    Q
--------------------------|----------------------|-------|
--------------------------|----------------------|-------|
--------------------------|----------------------|-------|
--------------------------|----------------------|-------|
-----------------4--x--4--|----------------------|-------|
--2--x--2--x--x-----------|--0-------------------|-------|


  Q    Q    Q    Q               Q    Q    Q    Q       Q    Q    Q    Q
----------------------|-------|----------------------|----------------------|
----------------------|-------|----------------------|----------------------|
----------------------|-------|----------------------|----------------------|
----------------------|-------|----------------------|----------------------|
----------------------|-------|----------------------|----------------------|
--0-------------------|-------|--0-------------------|--0----0--------------|


  Q    Q    Q    Q               S S S S S E  S S S E  S S E
----------------------|-------|-------------------------------|
----------------------|-------|-------------------------------|
----------------------|-------|-------------------------------|
----------------------|-------|-------------------------------|
----------------------|-------|-------------------------------|
--0-------------------|-------|--0-0-0-0---8--0-0-0-4--0-0-4--|


  S S S E  S E  S S S S S S E     S S S S S E  S S S E  S S E
-------------------------------|-------------------------------|
-------------------------------|-------------------------------|
-------------------------------|-------------------------------|
-------------------------------|-------------------------------|
-------------------------------|-------------------------------|
--0-0-0-1--0-4--1-0-0-1-0-0-4--|--0-0-0-0---8--0-0-0-4--0-0-4--|


  S S S E  S E  S S S S S S E     S S S S S E  S S S E  S S E
-------------------------------|-------------------------------|
-------------------------------|-------------------------------|
-------------------------------|-------------------------------|
-------------------------------|-------------------------------|
-------------------------------|-------------------------------|
--0-0-0-1--0-4--1-0-0-1-0-0-4--|--0-0-0-0---8--0-0-0-4--0-0-4--|


  S S S E  S E  S S S S S S E     S S S S S E  S S S E  S S E
-------------------------------|-------------------------------|
-------------------------------|-------------------------------|
-------------------------------|-------------------------------|
-------------------------------|-------------------------------|
-------------------------------|-------------------------------|
--0-0-0-1--0-4--1-0-0-1-0-0-4--|--0-0-0-0---8--0-0-0-4--0-0-4--|


  S S S E  S E  S S S S S S E     S S S S S S S S S S S S S S S S
-------------------------------|----------------------------------|
-------------------------------|--4-4-4-4-4-4-4-4-4-4-4-4-4-4-4-4-|
-------------------------------|--7-7-7-7-7-7-7-7-7-7-7-7-7-7-7-7-|
-------------------------------|----------------------------------|
-------------------------------|----------------------------------|
--0-0-0-1--0-4--1-0-0-1-0-0-4--|----------------------------------|


  S S S S S S S S S S S S S S S S
----------------------------------|
--4-4-4-4-4-4-4-4-4-4-4-4-4-4-4-4-|
--7-7-7-7-7-7-7-7-7-7-7-7-7-7-7-7-|
----------------------------------|
----------------------------------|
----------------------------------|


  S S S  S  S  S  S  S  S  S  S  S  S  S  S  S
------------------------------------------------|
--4-4-4--4--4--4--4--4--4--4--4--4--4--4--4--4--|
--7-7-7b-7b-7b-7b-7b-7b-7b-7b-7b-7b-7b-7b-7b-7b-|
------------------------------------------------|
------------------------------------------------|
------------------------------------------------|


  S  S  S  S  S  S  S  S  S  S  S  S  S  S  S  S
--------------------------------------------------|
--4--4--4--4--4--4--4--4--4--4--4--4--4--4--4--4--|
--7b-7b-7b-7b-7b-7b-7b-7b-7b-7b-7b-7b-7b-7b-7b-7b-|
--------------------------------------------------|
--------------------------------------------------|
--------------------------------------------------|


  S S S S S S S S S S S S S S S S    S S S S S S S S S S S S S S S S
----------------------------------|----------------------------------|
--4-4-4-4-4-4-4-4-4-4-4-4-4-4-4-4-|--4-4-4-4-4-4-4-4-4-4-4-4-4-4-4-4-|
--7-7-7-7-7-7-7-7-7-7-7-7-7-7-7-7-|--7-7-7-7-7-7-7-7-7-7-7-7-7-7-7-7-|
----------------------------------|----------------------------------|
----------------------------------|----------------------------------|
----------------------------------|----------------------------------|


  S S S  S  S  S  S  S  S  S  S  S  S  S  S  S
------------------------------------------------|
--4-4-4--4--4--4--4--4--4--4--4--4--4--4--4--4--|
--7-7-7b-7b-7b-7b-7b-7b-7b-7b-7b-7b-7b-7b-7b-7b-|
------------------------------------------------|
------------------------------------------------|
------------------------------------------------|


  S  S  S  S  S  S  S  S  S  S  S  S  S  S  S  S
--------------------------------------------------|
--4--4--4--4--4--4--4--4--4--4--4--4--4--4--4--4--|
--7b-7b-7b-7b-7b-7b-7b-7b-7b-7b-7b-7b-7b-7b-7b-7b-|
--------------------------------------------------|
--------------------------------------------------|
--------------------------------------------------|


  S S S S S S S S S S S S S S S S    S S S S S S S S S S S S S S S S
----------------------------------|----------------------------------|
--4-4-4-4-4-4-4-4-4-4-4-4-4-4-4-4-|--4-4-4-4-4-4-4-4-4-4-4-4-4-4-4-4-|
--7-7-7-7-7-7-7-7-7-7-7-7-7-7-7-7-|--7-7-7-7-7-7-7-7-7-7-7-7-7-7-7-7-|
----------------------------------|----------------------------------|
----------------------------------|----------------------------------|
----------------------------------|----------------------------------|


  S S S  S  S  S  S  S  S  S  S  S  S  S  S  S
------------------------------------------------|
--4-4-4--4--4--4--4--4--4--4--4--4--4--4--4--4--|
--7-7-7b-7b-7b-7b-7b-7b-7b-7b-7b-7b-7b-7b-7b-7b-|
------------------------------------------------|
------------------------------------------------|
------------------------------------------------|


  S  S  S  S  S  S  S  S  S  S  S  S  S  S  S  S
--------------------------------------------------|
--4--4--4--4--4--4--4--4--4--4--4--4--4--4--4--4--|
--7b-7b-7b-7b-7b-7b-7b-7b-7b-7b-7b-7b-7b-7b-7b-7b-|
--------------------------------------------------|
--------------------------------------------------|
--------------------------------------------------|


  S S S S S S S S S S S S S S S S    S S S S S S S S S S S S S S S S
----------------------------------|----------------------------------|
--4-4-4-4-4-4-4-4-4-4-4-4-4-4-4-4-|--4-4-4-4-4-4-4-4-4-4-4-4-4-4-4-4-|
--7-7-7-7-7-7-7-7-7-7-7-7-7-7-7-7-|--7-7-7-7-7-7-7-7-7-7-7-7-7-7-7-7-|
----------------------------------|----------------------------------|
----------------------------------|----------------------------------|
----------------------------------|----------------------------------|


  S S S  S  S  S  S  S  S  S  S  S  S  S  S  S
------------------------------------------------|
--4-4-4--4--4--4--4--4--4--4--4--4--4--4--4--4--|
--7-7-7b-7b-7b-7b-7b-7b-7b-7b-7b-7b-7b-7b-7b-7b-|
------------------------------------------------|
------------------------------------------------|
------------------------------------------------|


  S  S  S  S  S  S  S  S  S  S  S  S  S  S  S  S
--------------------------------------------------|----|----|----|
--4--4--4--4--4--4--4--4--4--4--4--4--4--4--4--4--|----|----|----|
--7b-7b-7b-7b-7b-7b-7b-7b-7b-7b-7b-7b-7b-7b-7b-7b-|----|----|----|
--------------------------------------------------|----|----|----|
--------------------------------------------------|----|----|----|
--------------------------------------------------|----|----|----|


  Q    S S. S. H             Q.       H          E     H        Q     E    E
---------x--x------------|--20b------20b~--------L--|--L--------L----20b--20b--|
---------x--x------------|--------------------------|--------------------------|
---------x--x------------|--------------------------|--------------------------|
-------------------------|--------------------------|--------------------------|
---------------6/--------|--------------------------|--------------------------|
-------------------------|--------------------------|--------------------------|


  H        Q     E    E      Q.      H          E     H        E    E   E   E
--L--------L--------------|------------------------|---------------------------|
----------------19b--19b--|--L------19b~--------L--|--L--------L---------------|
--------------------------|------------------------|--------------/12--11--12--|
--------------------------|------------------------|---------------------------|
--------------------------|------------------------|---------------------------|
--------------------------|------------------------|---------------------------|


                                |---3---|
   S  S  S  S  E.   S  S  S. S. E   E   E
-------------------------------------------|
-------------------------------13--15--16--|
--14-15-14-15-14---14-12-14-15-------------|
-------------------------------------------|
-------------------------------------------|
-------------------------------------------|


                              |--3--|
   E.   E   S.S  S  Q      S. S  S  S
--14---15--17---18-18b----18-17-18-17-|
--------------------------------------|
--------------------------------------|
--------------------------------------|
--------------------------------------|
--------------------------------------|


                    |--3--|  |---3---|
   E   S  S   E  S  S  S  S  E   E   E   E  S    H        E   E   S  S  S  S
--15---L-15S-14--L-14-12-11-14--11--14--------|------------------------------|
----------------------------------------13--L-|--L--------L--13b--L-13-11----|
----------------------------------------------|---------------------------10-|
----------------------------------------------|------------------------------|
----------------------------------------------|------------------------------|
----------------------------------------------|------------------------------|


   S  E   S  S  E   E   E  E   S S S    S S S S Q.      S. S. S. S.
-------------------11----------------|-----------------------------|
--11-10--11-10-----------------------|-----------------18-17-16-15-|
---------------12------11--L\--7-5-7-|--8-7-5-7-L------------------|
-------------------------------------|-----------------------------|
-------------------------------------|-----------------------------|
-------------------------------------|-----------------------------|


   S. S  S  Q    S.  Q    E  S     E   E    Q     E   Q    E
-------------------------------|------22b--22b----L--22----L--|
--14-16-15-16----L\-15----L--L-|---L--------------------------|
-------------------------------|------------------------------|
-------------------------------|------------------------------|
-------------------------------|------------------------------|
-------------------------------|------------------------------|


  Q     Q      H
--L----24b----24b--------|
-------------------------|
-------------------------|
-------------------------|
-------------------------|
-------------------------|


               |--3--|              |--3--|  |--3--|  |--3--|
   E.    T  T  S  S  S  S  S  S  S  S  S  S  S  S  S  S  S  S
--20b---18-20-22-20-18-20-18-14-17-14----14-------------------|
--------------------------------------15----15----------------|
-----------------------------------------------14----------14-|
--------------------------------------------------15----15----|
-----------------------------------------------------17-------|
--------------------------------------------------------------|


   |--3--|  |--3--|        |---3--|  |--3--|  |--3--|  3  3      3
   S  S  S  S  S  S  T  T  S   S  S  S  S  S  S  S  S  S  S  E   S S
-----------15-17-18-20-22-24b-22-20----------------------------------|
--15-17-18--------------------------23-22-20-------------------------|
---------------------------------------------19-17-15----------------|
------------------------------------------------------19-17-15\--L-L-|
---------------------------------------------------------------------|
---------------------------------------------------------------------|


                        PM PM    PM PM PM PM PM
  E   S  S  S  S  S  S  S  S  S  S  S  S  S  S
-----17-13-15-12-13-12-------------------------|
-----------------------13-13-17-13-13-13-13-13-|
-----------------------------------------------|
-----------------------------------------------|
-----------------------------------------------|
-----------------------------------------------|


         PM
   S  S  S  S  S  S  E   S  S  S  S  S  S  S  S     Q     E   E   Q     Q
------------------------------------------------|----------------10-----L----|
--13-17-13-13-15-13-17--------------------10-11-|--10-----L---L---L-----L----|
------------------------14----12----------------|--------11---L---L-----L----|
---------------------------10----10-10-10-------|------------12---L----12----|
------------------------------------------------|----------------------------|
------------------------------------------------|----------------------------|


  |--3--|            |---3---|   |---3---|
  E  E  E  S  E   S  E   E   E   E   E   E      H         E    Q.
------------------------------------15--17--|--18--------20b--20------|
------------------------11--13--15----------|-------------------------|
-----------------12-14----------------------|-------------------------|
--0--5--7--L-12-----------------------------|-------------------------|
--------------------------------------------|-------------------------|
--------------------------------------------|-------------------------|


   S  T  S T  E   S  S  S  S  E   S  S  S  S  S      W
--24b---20--------------------------------------|----------------------|
-------------22---------------------------------|----------------------|
-----------------22-19-------18-----------------|--(18)----------------|
-----------------------19-22--------------------|--(15)----------------|
---------------------------------20-19-17-15-16-|---17-----------------|
------------------------------------------------|----------------------|


  H        H           E  E  E  E  E  E  E  E     E  E  E  E  E  E  E  E
--------------------|--------------------------|--------------------------|
--------------------|--------------------------|--------------------------|
--L-----------------|--------------------------|--------------------------|
--L-----------------|--------------------------|--------------------------|
--L-----------------|--------------------------|--------------------------|
--------------------|--0--3--0-----0-----0--3--|--0--3--0-----0-----0-----|


  E  E  E  E  E  E  E  E     E  E  E  E  E  E  E  E
--------------------------|--------------------------|
--------------------------|--------------------------|
--------------------------|--------------------------|
--------------------------|--------------------------|
--------------------------|--------------------------|
--0--3--0--3--0-----0--3--|--0--3--0-----0--3--0--3--|


  E  E  E  E  E  E  E  E     E  E  E  E  E  E  E  E
--------------------------|--------------------------|
--------------------------|--------------------------|
--------------------------|--------------------------|
--------------------------|--------------------------|
--------------------------|--------------------------|
--0--3--0-----0-----0--3--|--0--3--0-----0-----0-----|


  E  E  E  E  E  E  E  E     E  E  E  E  E  E  E  E
--------------------------|--------------------------|
--------------------------|--------------------------|
--------------------------|--------------------------|
--------------------------|--------------------------|
--------------------------|--------------------------|
--0--3--0--3--0-----0--3--|--0--3--0-----0--3--0--3--|


  E  E  E  E  E  E  E  E     E  E  E  E  E  E  E  E
--------------------------|---------------------------|
--------------------------|---------------------------|
--------------------------|---------------------------|
--------------------------|---------------------------|
--1--x--1--x--x--1--x--1--|--x--1--x--1--3--x--3--L\--|
--------------------------|---------------------------|


  E  E  E  E  E  E  E  E     E  E  E  E  E  E  E  E
-----------------------
comments
We did not receive enough feedback on this tab! Please rate:
1 2 3 4 5
I want to post or [tab]
guest
You may want to rate the tab now too:
select rating
Please do not post tabs as comments. Select "correction" instead!