Oops, an error
Loading. Please wait.

Teakwood Betz Tab

ver3
ver3

Whole song

More versions @911Tabs.com
4,977 views 6 this week
2 commentsread comments
1 2 3 4 5
excellent!
x 6
Autoscroll
+/-
esc
set tempo
stop
Contributor
Hey! There's an official Ultimate Guitar app which is ideal
for learning songs when you're away from computer. Get the app
WARNING: You are trying to view
                                    content from Ultimate-Guitar.com
                                    in an unauthorized application,
                                    which is prohibited.

                                    Please use an official Ultimate
                                    Guitar Tabs application for iPhone,
                                    iPad or Android to access legitimate
                                    chords, guitar, bass, and drum tabs
                                    from Ultimate-Guitar.com database.

                                    Type "ultimate guitar tabs" in Apple
                                    App Store's or Android Market's
                                    search to find the application.
i saw a few tabs for this song that looked a little off. maybe its just cuz i play it a
way i really dont know. if you have a tab book im sure its not gonna be exactly the same
do realize theres different ways to play a lot of things. but either way i hope you 
this tab. i have a ton of fun playing this song and i hope you will too :] enjoy. the
notes before each section tell a little bit about sometimes what effects i prefer to use 
it or help on what to play so read them.

(intro) im srry i never found out the notes before the delayed muted hit :/ but for that
have my delay on 110-120 ms you can fidget with that and the fadeback is 85% mix 50% on
pedal at least. also for part two of this right here you can choose to play the base 
or what i put.
----------------------------\------x------------------------------------|
-----------------------------\-----x------------------------------------|
------------------------------\-x4-x--------11-----------14---------9---|x4
----4--------7--------2-------/----x-----99----9---12-12----12---77---7-|
-22---2---55---5---00---0----/-----x------------------------------------|
----------------------------/------x------------------------------------|

this part i play with delay at 380-390 ms. i dont think its quite right tho if anyone
a better timing to use on the delay plz lemme know. he also adds the muted delay thing in
each of the first 3 times of the 2242 5575 0020 part. here.
-----------\-------------------------------\------9-9-10-10-10-9-9\------|
-12--10--5--\-------------------------------\-----x-x-x--x--x--x-x-------|
-x---x---x---\-x4----------------------------\x4--6-6-7--7--7--6-6\------|
-9---7---2---/--------4--------7--------2----/---------------------------|
------------/------22---2---55---5---00---0-/----------------------------|
-----------/-------------------------------/-----------------------------|

your gonna play the 2242 5575 0020 part of the intro twice before you go into this. mind
you dont have to play the chord fractions it sounds fine without them im not even 100%
theyre right. sound good to me tho
-----------------------------------------------------------|
-7h10p7------5h7p5----5h7p5----5h7p5----5h7p5--------------|
-7------97-7------7--------7--------7--------7-------------| x4  4th time end on g
-9-----------------7-7------7-7------7-7------7-7-7/9------|     string 7th fret
-----------------------------------------------------------|
-----------------------------------------------------------|

--9h10p9---------9h10p9-----9h10p9-----9h10p9-----9h10p9----------\------|
-10-----12-10-10-------10---------10---------10---------10---------\-----|
-11----------------------9-9--------9-9--------9-9--------9-9-11----\x7--|
--------------------------------------------------------------------/----|
-------------------------------------------------------------------/-----|
------------------------------------------------------------------/------|

--9h10p9---------10-9--10-9----9-9-10-10-10-9-9-9------------------------|
-10-----12-10-10-----10----10--x-x--x--x--x-x-x-x------------------------|
-11----------------------------6-6--7--7--7-6-6-6------------------------|
-------------------------------------------------------------------------|
-------------------------------------------------------------------------|
-------------------------------------------------------------------------|

play this little part right here 4 times before going into next part.
^^^^^^                                       ~~~~~~~~< means hold
--------|-------------------------------\--------------------------------|
--------|--------------------------------\-------------------------------|
--------|---------------------------------\x4----------------------------|
---4----|----7------7------7---77777777---/------------------------------|
-22-2---|--7h9-9--7h9-9--7h9-9-77777777--/-------------------------------|
--------|-7------7------7------55555555-/-----7--------------------------|

this ambient part right here put on lots of flanger or chorus i couldnt get the effect
this part for some reason :/ maybe i chose wrong effects. but notes sounded like this
--------------------------------|
------------------15-14--10--12-|
--------------------------------|
-9----9--9\--9-9----------------|
--------------------------------|
--------------------------------|

-10-10-99-----------10-10-99----------10-10-99--------------------------|
---------10-10--------------10-10-------------10-10---------------------|
---------------11-11-------------11-11-------------11-11-9-9-9-9-9-9----|
------------------------------------------------------------------------|
------------------------------------------------------------------------|
------------------------------------------------------------------------|

-10-10-99-----------10-10-99----------10-10-99--------------------------|
---------10-10--------------10-10-------------10-10---------------------|
---------------11-11-------------11-11-------------9-9-9-9-9-9-9-9------|
------------------------------------------------------------------------|
------------------------------------------------------------------------|
------------------------------------------------------------------------|
    ~~~~~~~~           ~~~~~                       ~~~~~~~~
-------------------------------------------------------------------------|
-------------------------------------------------------------------------|
-9h11--------9--9--------------------------------------------------------|
--------------12-12\11-9--------12-12-12-12-11---------------------------|
----------------------------------------------12-7/9---------------------|
-------------------------------------------------------------------------|
                                 * * * * * * *
-------------------------------------------------------------------------|
-------------------------------------------------------------------------|
-------------------------------------------------------------------------|
-------------------------------------------------------------------------|
-7-7-7-7\5-4----5h7-7-7-7-7\5-4----------------5h7-7-7-7-7\5-4-----------|
------------7------------------7-7-7-7-7-7-7-7----------------7----------|


-------------|-10-10-99----------10-10-99----------10-10-99---------------|
-------------|---------10-10-------------10-10-------------10-10----------|
-------------|--------------11-11-------------11-11-------------11-11-----|
-----7-7-7-9-|------------------------------------------------------------|
-7h9----9----|------------------------------------------------------------|
-------------|------------------------------------------------------------|

i know this part isnt perfect im sorry im lazy if you wanna play it perfect then the 3rd
playing that instead of playing the 11's on the g string play all 9's.
-10-10-99------------------\----------------------------------------------|
---------10-10--------------\---------------------------------------------|
--------------11-11-999999---\x4------------------------------------------|
-----------------------------/--------------------------------------------|
----------------------------/---------------------------------------------|
---------------------------/----------------------------------------------|

solo type part!      ~~~~~~~~
----------------------------------------------------------------------|
----------------------------------------------------------------------|
-11-11-11p9-9-9-------------------------------------------------------|
---------------12-11-9----------12-12-12-12-12-12-11-11----------11---|
-------------------------------------------------------12-12-------14-|
-------------------------------------------------------------12/14----|
                         ^^^^^^^^^^^^^^ that part right there i couldnt exactly hear how
times he played that note. so sorry :/ listen to the music if you can figure it out.
im just retarded.


----------------------------------------------------------------------------|
-----------------------------------------10---------------------------------|
------------------------------6-7----9h11--11-11-9--------------------------|
-9h11-11-11-9--------7h9-9-9-9--------------------12-12/14-14-14-14-12-11-9-|
-------------12-12----------------------------------------------------------|
----------------------------------------------------------------------------|


-------------------------------------------------------------------------|
-------------------------------------------------------------------------|
---------9---------------------------------------------------------------|
-9-11-12---12-11-9----11-11/12-11-9-9----12-11--11-9---------------------|
-------------------12-------------------------12-------------------------|
-------------------------------------------------------------------------|
                                          ^ call me lazy but whatever lol i dont feel
writing out all those 12's. i cant put tremelo pick cuz its not fast enough :/ just pick 9
12's. if you dont have awesome beat yet i suggest just tremelo it i guess.

yea and before anyone says anything about this. im about 95% sure this part right here
wrong... what i play still sounds ok with the music im srry i just had a huge mental
with this part for some reason notes wouldnt come to me.
----------------------------|
-------------------10--10/12|
-9/11-11-11-11\9-----11-----|
-7/9--9--9------12----------|
----------------------------|
----------------------------|

 not sure how to write this in a tab. but uh rake the 11 12 10 combination everytime in
section when it comes up. just let your pick flow down the strings lol. best way to
sounds pretty damn cool. note in parantheses is optional. if you feel you can add it 
the rake do so. if not it sounds fine without it.
-----10-10-10-10-10-9--------------10-12--10-9----------9-9h10-9---------|
---12-----------------10-10/12---12-----------12-10---12---------12-12---|
-11----------------------------11-------------------11-------------------|
(9)----------------------------------------------------------------------|
-------------------------------------------------------------------------|
-------------------------------------------------------------------------|


-----10-10-9------------10-10-9----------10--9-------------10-9----------|
---12--------12-12----12-------10------12-----12-10------12----10--12----|
-11-----------------11-----------11--11------------11--11--------11------|
(9)----------------(9)--------------(9)---------------(9)----------------|
-------------------------------------------------------------------------|
-------------------------------------------------------------------------|


-----10-10-9-10-10/12-10-12-12/14-17-17-17-17-17-17-17-17-19-19\---------|
---12--------------------------------------------------------------------|
-11----------------------------------------------------------------------|
(9)----------------------------------------------------------------------|
-------------------------------------------------------------------------|
-------------------------------------------------------------------------|
END OF SOLO

-----------------\------------------------------------\------------------|
------------------\------------------------------------\-----------------|
-------------------\x2----------------------------------\x3--------------|
-----7-------7-----/-------7------7------7--77777777----/----------------|
--7h9-9---7h9-9---/-----7h9-9--7h9-9--7h9-9-77777777---/-----------------|
-7-------7-----5-/-----7------7------7------55555555--/------------------|


-------------------------------------------------------------------------|
---------------------14-14-14-15-15-15-14-14\----------------------------|
----------------------x--x--x--x--x--x--x--x-----------------------------|
-----7------7--7/11--11-11-11-12-12-12-11-11\----------------------------|
--7h9-9--7h9-------------------------------------------------------------|
-7------7----------------------------------------------------------------|


-------------------------------------------------------------------------|
-------------------------------------------------------------------------|
-------------------------------------------------------------------------|
---4-------4-------4-------4---------------------------------------------|
-22-2----22-2----22-2----22-2--------------------------------------------|
-------------------------------------------------------------------------|


well if you have made it this far i hope you have learned a bit of the song at least
is my first tab. err finished tab at least. this was all by ear. so if any of it is wrong
are welcome. the most of the song i play with somewhat of a weak phaser and a very quick 
delay where its barely audible that its a delay unless you hit mutes. well. rate plz!!!

PGROOVE ROCKS!!!!! ultimate guitar needs way more tabs by them i thought id help out and
something. if i ever add another song its gonna be tsm 2 or three weeks. enjoy. later
gl learning this.
comments
print report bad tab
2 comments total.
0 reply
anthony666 wrote on April 23 2009, 12:06 pm

OMG I FEEL DUMB im sorry everyone on the part that goes...

-10-10-99-----------10-10-99----------10-10-99--------------------------|
---------10-10--------------10-10-------------10-10---------------------|
---------------11-11-------------11-11-------------11-11-9-9-9-9-9-9----|
------------------------------------------------------------------------|
------------------------------------------------------------------------|
------------------------------------------------------------------------|

palm mute those :/ grr i didnt really know how to write that in a tab tho

+1 reply
Shwax wrote on November 6 2009, 01:04 am

this is great - it's probably not perfect, but it's damn good enough for 5 stars imo

I want to post or [tab]
guest
You may want to rate the tab now too:
select rating
Please do not post tabs as comments. Select "correction" instead!