Oops, an error
Loading. Please wait.

Devouring Frenzy Tab

135 views 1 this week
no commentswrite comment
1 2 3 4 5
please rate
Autoscroll
+/-
esc
set tempo
stop
Difficulty
Tuning
novice
D G C F A D
WARNING: You are trying to view
                                    content from Ultimate-Guitar.com
                                    in an unauthorized application,
                                    which is prohibited.

                                    Please use an official Ultimate
                                    Guitar Tabs application for iPhone,
                                    iPad or Android to access legitimate
                                    chords, guitar, bass, and drum tabs
                                    from Ultimate-Guitar.com database.

                                    Type "ultimate guitar tabs" in Apple
                                    App Store's or Android Market's
                                    search to find the application.
Traccia 1
               PM PM PM PM PM PM                                      
               E  E  E  E  E  E  E  S S    E  E  E  E  E  E  E  E   3x
E||-------||----------------------------|---------------------------||
B||-------||----------------------------|---------------------------||
G||-------||*---------------------------|--------------------------*||
D||-------||*---------------------------|--------------------------*||
A||-------||----------------------------|---------------------------||
D||-------||---4--7--3--6--2--5--4--5-5-|--6--5--4--5--6--7--6--5---||


  PM PM PM PM PM PM                                   
  E  E  E  E  E  E  E  E     E  E  E  E    H          
--------------------------|--------------------------|
--------------------------|--------------------------|
--------------------------|--------------------------|
--------------------------|--------------------------|
--------------------------|--------------<>3b--------|
--4--7--3--6--2--5--4--5--|--6--5--4--5--------------|


    PM PM PM PM PM PM                                      
    E  E  E  E  E  E  E  S S    E  E  E  E  E  E  E  E   3x
|----------------------------|---------------------------||
|----------------------------|---------------------------||
|*---------------------------|--------------------------*||
|*---------------------------|--------------------------*||
|----------------------------|---------------------------||
|---4--7--3--6--2--5--4--5-5-|--6--5--4--5--6--7--6--5---||


  PM PM PM PM PM PM                                   
  E  E  E  E  E  E  E  E     E  E  E  E    H          
--------------------------|--------------------------|
--------------------------|--------------------------|
--------------------------|--------------------------|
--------------------------|--------------------------|
--------------------------|--------------<>3b--------|
--4--7--3--6--2--5--4--5--|--6--5--4--5--------------|


  PM PM PM PM PM PM                                   
  E  E  E  E  E  E  E  E     E  E  E  E  E  E  E  E   
--------------------------|--------------------------|
--------------------------|--------------------------|
--------------------------|--------------------------|
--------------------------|--------------------------|
--------------------------|--------------------------|
--4--7--3--6--2--5--4--5--|--6--5--4--5--6--7--6--5--|


  PM PM PM PM PM PM                                   
  E  E  E  E  E  E  E  E     E  E  E  E  E  E  E  E   
--------------------------|--------------------------|
--------------------------|--------------------------|
--------------------------|--------------------------|
--------------------------|--------------------------|
--------------------------|--------------------------|
--4--7--3--6--2--5--4--5--|--6--5--4--5--6--7--6--5--|


    PM PM PM PM PM PM                                      
    E  E  E  E  E  E  E  S S    E  E  E  E  E  E  E  E   3x
|----------------------------|---------------------------||
|----------------------------|---------------------------||
|*---------------------------|--------------------------*||
|*---------------------------|--------------------------*||
|----------------------------|---------------------------||
|---4--7--3--6--2--5--4--5-5-|--6--5--4--5--6--7--6--5---||


  PM PM PM PM PM PM                                   
  E  E  E  E  E  E  E  E     E  E  E  E    H          
--------------------------|--------------------------|
--------------------------|--------------------------|
--------------------------|--------------------------|
--------------------------|--------------------------|
--------------------------|--------------<>3b--------|
--4--7--3--6--2--5--4--5--|--6--5--4--5--------------|


    PM PM PM PM PM PM                                      
    E  E  E  E  E  E  E  S S    E  E  E  E  E  E  E  E   3x
|----------------------------|---------------------------||
|----------------------------|---------------------------||
|*---------------------------|--------------------------*||
|*---------------------------|--------------------------*||
|----------------------------|---------------------------||
|---4--7--3--6--2--5--4--5-5-|--6--5--4--5--6--7--6--5---||


  PM PM PM PM PM PM                                   
  E  E  E  E  E  E  E  E     E  E  E  E    H          
--------------------------|--------------------------|
--------------------------|--------------------------|
--------------------------|--------------------------|
--------------------------|--------------------------|
--------------------------|--------------<>3b--------|
--4--7--3--6--2--5--4--5--|--6--5--4--5--------------|


    E  E  E  E  E  E  E  E     E  E  E  E  E    Q.      
|---------------------------|--------------------------|
|---------------------------|--------------------------|
|*--------------------------|--------------4s--10------|
|*--------------------------|--------------3s---9------|
|---------1-----------------|--------------------------|
|---7--5-----4--7--5--8--4--|--7--5--8--4--------------|


  E  E  E  E  E  E  E  E     E  E  E  E  E    E  E    E     
--------------------------|-------------------------------||
--------------------------|-------------------------------||
--------------------------|--------------4s--10--4s--10--*||
--------------------------|--------------3s---9--3s---9--*||
--------1-----------------|--------1----------------------||
--7--5-----4--7--5--8--4--|--7--5-----4-------------------||


   E  E  E  E  E  E  E  E     E  E  E  E  E    Q.      
---------------------------|--------------------------|
---------------------------|--------------------------|
*--------------------------|--------------4s--10------|
*--------------------------|--------------3s---9------|
---------------------------|--------------------------|
---7--5--8--4--7--5--8--4--|--7--5--8--4--------------|


  E  E  E  E  E  E  E  E     E  E  E  E  E    E  E    E   
--------------------------|------------------------------|
--------------------------|------------------------------|
--------------------------|--------------4s--10--4s--10--|
--------------------------|--------------3s---9--3s---9--|
--------1-----------------|--------1---------------------|
--7--5-----4--7--5--8--4--|--7--5-----4------------------|


  E  E  E  E  E  E  E  E     E  E  E  E  E    Q.      
--------------------------|--------------------------|
--------------------------|--------------------------|
--------------------------|--------------4s--10------|
--------------------------|--------------3s---9------|
--------------------------|--------------------------|
--7--5--8--4--7--5--8--4--|--7--5--8--4--------------|


    |----3----|    |----3----|       |----3----|    |----3----|       
    Q    Q    Q    Q    Q    Q       Q    Q    Q    Q    Q    Q     8x
|---------------------------------|---------------------------------||
|---------------------------------|---------------------------------||
|*--4----3----4----6----7----6----|--4----3----4----6----7----6----*||
|*--3----2----3----5----6----5----|--3----2----3----5----6----5----*||
|---------------------------------|---------------------------------||
|---------------------------------|---------------------------------||


  |----3----|    |----3----|       |----3----|    |----3----|       ----- 
  Q    Q    Q    Q    Q    Q       Q    Q    Q    Q    Q    Q             
--------------------------------|--------------------------------|-------|
--------------------------------|--------------------------------|-------|
--4----3----4----6----7----6----|--4----3----4----6----7----6----|-------|
--3----2----3----5----6----5----|--3----2----3----5----6----5----|-------|
--------------------------------|--------------------------------|-------|
--------------------------------|--------------------------------|-------|


    PM PM PM PM PM PM                                      
    E  E  E  E  E  E  E  S S    E  E  E  E  E  E  E  E   3x
|----------------------------|---------------------------||
|----------------------------|---------------------------||
|*---------------------------|--------------------------*||
|*---------------------------|--------------------------*||
|----------------------------|---------------------------||
|---4--7--3--6--2--5--4--5-5-|--6--5--4--5--6--7--6--5---||


  PM PM PM PM PM PM                                   
  E  E  E  E  E  E  E  E     E  E  E  E    H          
--------------------------|--------------------------|
--------------------------|--------------------------|
--------------------------|--------------------------|
--------------------------|--------------------------|
--------------------------|--------------<>3b--------|
--4--7--3--6--2--5--4--5--|--6--5--4--5--------------|


    PM PM PM PM PM PM                                      
    E  E  E  E  E  E  E  S S    E  E  E  E  E  E  E  E   3x
|----------------------------|---------------------------||
|----------------------------|---------------------------||
|*---------------------------|--------------------------*||
|*---------------------------|--------------------------*||
|----------------------------|---------------------------||
|---4--7--3--6--2--5--4--5-5-|--6--5--4--5--6--7--6--5---||


  PM PM PM PM PM PM                                   
  E  E  E  E  E  E  E  E     E  E  E  E    H          
--------------------------|--------------------------|
--------------------------|--------------------------|
--------------------------|--------------------------|
--------------------------|--------------------------|
--------------------------|--------------<>3b--------|
--4--7--3--6--2--5--4--5--|--6--5--4--5--------------|


    E  E  E  E  E  E  E  E     E  E  E  E  E    Q.      
|---------------------------|--------------------------|
|---------------------------|--------------------------|
|*--------------------------|--------------4s--10------|
|*--------------------------|--------------3s---9------|
|---------1-----------------|--------------------------|
|---7--5-----4--7--5--8--4--|--7--5--8--4--------------|


  E  E  E  E  E  E  E  E     E  E  E  E  E    E  E    E     
--------------------------|-------------------------------||
--------------------------|-------------------------------||
--------------------------|--------------4s--10--4s--10--*||
--------------------------|--------------3s---9--3s---9--*||
--------1-----------------|--------1----------------------||
--7--5-----4--7--5--8--4--|--7--5-----4-------------------||


   E  E  E  E  E  E  E  E     E  E  E  E  E    Q.      
---------------------------|--------------------------|
---------------------------|--------------------------|
*--------------------------|--------------4s--10------|
*--------------------------|--------------3s---9------|
---------------------------|--------------------------|
---7--5--8--4--7--5--8--4--|--7--5--8--4--------------|


  E  E  E  E  E  E  E  E     E  E  E  E  E    E  E    E   
--------------------------|------------------------------|
--------------------------|------------------------------|
--------------------------|--------------4s--10--4s--10--|
--------------------------|--------------3s---9--3s---9--|
--------1-----------------|--------1---------------------|
--7--5-----4--7--5--8--4--|--7--5-----4------------------|


  E  E  E  E  E  E  E  E     E  E  E  E  E    Q.      
--------------------------|--------------------------|
--------------------------|--------------------------|
--------------------------|--------------4s--10------|
--------------------------|--------------3s---9------|
--------------------------|--------------------------|
--7--5--8--4--7--5--8--4--|--7--5--8--4--------------|


    |----3----|    |----3----|       |----3----|    |----3----|       
    Q    Q    Q    Q    Q    Q       Q    Q    Q    Q    Q    Q     8x
|---------------------------------|---------------------------------||
|---------------------------------|---------------------------------||
|*--4----3----4----6----7----6----|--4----3----4----6----7----6----*||
|*--3----2----3----5----6----5----|--3----2----3----5----6----5----*||
|---------------------------------|---------------------------------||
|---------------------------------|---------------------------------||


  |----3----|    |----3----|       |----3----|    |----3----|      
  Q    Q    Q    Q    Q    Q       Q    Q    Q    Q    Q    Q      
--------------------------------|--------------------------------||
--------------------------------|--------------------------------||
--4----3----4----6----7----6----|--4----3----4----6----7----6----||
--3----2----3----5----6----5----|--3----2----3----5----6----5----||
--------------------------------|--------------------------------||
--------------------------------|--------------------------------||




Duration Legend
---------------
W - whole
H - half
Q - quarter
E - 8th
S - 16th
T - 32nd
X - 64th
. - note dotted
|-n-|  - n-tuplets


Tablature Legend
----------------
L - tied note
x - dead note
g - grace note
(n) - ghost note
> - accentuded note
NH - natural harmonic
AH - artificial harmonic
TH - tapped harmonic
SH - semi harmonic
PH - pitch harmonic
h - hammer on
p - pull off
b - bend
br - bendRelease
pb - preBend
pbr - preBendRelease
brb - bendReleaseBend
\n/ - tremolo bar dip
\n - tremolo bar dive
-/n - tremolo bar Release up
/n\ - tremolo bar inverted dip
/n - tremolo bar return
-\n - tremolo bar Release down
S - shift slide
s - legato slide
/ -  slide into from below or out of upwards
\ -  slide into from above or out of downwards
~ - vibrato
W - wide vibrato
tr - trill
TP - tremolo picking
T - tapping
S - slap
P - pop
< - fade in
^ - brush up
v - brush down
comments
We did not receive enough feedback on this tab! Please rate:
print report bad tab
1 2 3 4 5
I want to post or [tab]
guest
You may want to rate the tab now too:
select rating
Please do not post tabs as comments. Select "correction" instead!