Oops, an error
Loading. Please wait.

Land Of Tears Tab

ver2
ver2

Whole song

More versions @911Tabs.com
762 views 1 this week
no commentswrite comment
1 2 3 4 5
accurate
x 1
Autoscroll
+/-
esc
set tempo
stop
Contributor
WARNING: You are trying to view
                                    content from Ultimate-Guitar.com
                                    in an unauthorized application,
                                    which is prohibited.

                                    Please use an official Ultimate
                                    Guitar Tabs application for iPhone,
                                    iPad or Android to access legitimate
                                    chords, guitar, bass, and drum tabs
                                    from Ultimate-Guitar.com database.

                                    Type "ultimate guitar tabs" in Apple
                                    App Store's or Android Market's
                                    search to find the application.
#----------------------------------PLEASE NOTE---------------------------------#
#This file is the author's own work and represents their interpretation of the #
#song. You may only use this file for private study, scholarship, or research. #
#------------------------------------------------------------------------------#

LAND OF TEARS
As recorded by Pestilence
(From the 1991 Album TESTIMONY OF THE ANCIENTS)

Transcribed by The Foreverlorn
        

Words by Marco Foddis Music by Patrick Mameli

Gtr I (E A D G B E) - 'Rhythm I (Mameli)'
Gtr II (E A D G B E) - 'Rhythm II (Uterwijk)'
Gtr III (E A D G B E) - 'Solo Guitar (Mameli, Uterwijk)'
Gtr IV (E A D G B E) - 'Clean Rhythm (Uterwijk)'

   Intro
    Q=220
    N.C.
   4/4
    Gtrs I, II
    PM|         PM|           PM|                   PM|         PM|
    E E S S S S E E S S S S   E E S S S S E E E E   E E S S S S E E S S S S
||--------------------------|---------------------|--------------------------|
||o-------------------------|---------------------|--------------------------|
||--------------------------|---------------------|--------------------------|
||----4-3h4p3h4---4-3h4p3h4-|---4-3h4p3h4---------|---4-3h4p3h4---4-3h4p3h4--|
||o-------------------------|-------------7-6-5-4-|--------------------------|
||--2-----------2-----------|-2-------------------|-2-----------2------------|


  N.C.
  PM|                     PM|         PM|           PM|
  E E S S E E +E  E +E    E E S S S S E E S S S S   E E S S S S E E E E
|-----------------------|-------------------------|---------------------|
|-----------------------|-------------------------|---------------------|
|-----------------------|-------------------------|---------------------|
|---4-3h4-4s9-(9)-8-(8)-|---4-3h4p3h4---4-3h4p3h4-|---4-3h4p3h4---------|
|-----------------------|-------------------------|-------------7-6-5-4-|
|-2-------2s7-(7)-6-(6)-|-2-----------2-----------|-2-------------------|


  N.C.
  PM|         PM|           PM|
  E E S S S S E E S S S S   E E S S S S E +E  E +E
|-------------------------|--------------------------||
|-------------------------|-------------------------o||
|-------------------------|--------------------------||
|---4-3h4p3h4---4-3h4p3h4-|---4-3h4p3h4-9-(9)-8-(8)--||
|-------------------------|-------------------------o||
|-2-----------2-----------|-2-----------7-(7)-6-(6)--||


   Guitar Break
    N.C.
    Gtr I
    TP TP TP TP   TP TP TP TP   TP TP TP TP   TP TP PM----|
    Q  Q  Q  Q    Q  Q  Q  Q    Q  Q  Q  Q    Q  Q  E E E E
||--------------|-------------|-------------|-----------------||
||o-------------|-------------|-------------|----------------o||
||--------------|-------------|-------------|-----------------||
||--------------|-------------|-------------|-----------------||
||o-------------|-------------|-------------|----------------o||
||--7--3--0--7--|-3--0--6--3--|-7--3--0--7--|-3--0--6-5-4-3---||
|
|   Gtr II
|                                                   PM----|
|   W             W             W             H     E E E E
||--------------|-------------|-------------|-----------------||
||o-------------|-------------|-------------|----------------o||
||--------------|-------------|-------------|-----------------||
||--------------|-------------|-------------|-----------------||
||o-------------|-------------|-------------|----------------o||
||--------------|-------------|-------------|-------6-5-4-3---||


   Verse
    N.C.
    Gtrs I, II
    TP TP TP TP   TP TP TP TP   TP TP TP TP   TP TP PM----|
    Q  Q  Q  Q    Q  Q  Q  Q    Q  Q  Q  Q    Q  Q  E E E E   4x
||--------------|-------------|-------------|-----------------||
||o-------------|-------------|-------------|----------------o||
||--------------|-------------|-------------|-----------------||
||--------------|-------------|-------------|-----------------||
||o-------------|-------------|-------------|----------------o||
||--7--3--0--7--|-3--0--6--3--|-7--3--0--7--|-3--0--6-5-4-3---||


   Chorus
    N.C.
   4/4
    PM|         PM|           PM|                   PM|         PM|
    E E S S S S E E S S S S   E E S S S S E E E E   E E S S S S E E S S S S
||--------------------------|---------------------|--------------------------|
||o-------------------------|---------------------|--------------------------|
||--------------------------|---------------------|--------------------------|
||----3-2h3p2h3---3-2h3p2h3-|---3-2h3p2h3---------|---3-2h3p2h3---3-2h3p2h3--|
||o-------------------------|-------------6-5-4-3-|--------------------------|
||--2-----------2-----------|-2-------------------|-2-----------2------------|


  N.C.
  PM|                     PM|         PM|           PM|
  E E S S E E +E  E +E    E E S S S S E E S S S S   E E S S S S E E E E
|-----------------------|-------------------------|---------------------|
|-----------------------|-------------------------|---------------------|
|-----------------------|-------------------------|---------------------|
|---3-2h3-3s8-(8)-7-(7)-|---3-2h3p2h3---3-2h3p2h3-|---3-2h3p2h3---------|
|-----------------------|-------------------------|-------------6-5-4-3-|
|-2-------1s6-(6)-5-(5)-|-2-----------2-----------|-2-------------------|


  N.C.
  PM|         PM|           PM|
  E E S S S S E E S S S S   E E S S S S E +E  E +E
|-------------------------|--------------------------||
|-------------------------|-------------------------o||
|-------------------------|--------------------------||
|---3-2h3p2h3---3-2h3p2h3-|---3-2h3p2h3-8-(8)-7-(7)--||
|-------------------------|-------------------------o||
|-2-----------2-----------|-2-----------6-(6)-5-(5)--||


   Verse
    N.C.
    TP TP TP TP   TP TP TP TP   TP TP TP TP   TP TP PM----|
    Q  Q  Q  Q    Q  Q  Q  Q    Q  Q  Q  Q    Q  Q  E E E E   4x
||--------------|-------------|-------------|-----------------||
||o-------------|-------------|-------------|----------------o||
||--------------|-------------|-------------|-----------------||
||--------------|-------------|-------------|-----------------||
||o-------------|-------------|-------------|----------------o||
||--7--3--0--7--|-3--0--6--3--|-7--3--0--7--|-3--0--6-5-4-3---||


   Chorus
    N.C.
   4/4
    PM|         PM|           PM|                   PM|         PM|
    E E S S S S E E S S S S   E E S S S S E E E E   E E S S S S E E S S S S
||--------------------------|---------------------|--------------------------|
||o-------------------------|---------------------|--------------------------|
||--------------------------|---------------------|--------------------------|
||----3-2h3p2h3---3-2h3p2h3-|---3-2h3p2h3---------|---3-2h3p2h3---3-2h3p2h3--|
||o-------------------------|-------------6-5-4-3-|--------------------------|
||--2-----------2-----------|-2-------------------|-2-----------2------------|


  N.C.
  PM|                     PM|         PM|           PM|
  E E S S E E +E  E +E    E E S S S S E E S S S S   E E S S S S E E E E
|-----------------------|-------------------------|---------------------|
|-----------------------|-------------------------|---------------------|
|-----------------------|-------------------------|---------------------|
|---3-2h3-3s8-(8)-7-(7)-|---3-2h3p2h3---3-2h3p2h3-|---3-2h3p2h3---------|
|-----------------------|-------------------------|-------------6-5-4-3-|
|-2-------1s6-(6)-5-(5)-|-2-----------2-----------|-2-------------------|


  N.C.
  PM|         PM|           PM|
  E E S S S S E E S S S S   E E S S S S E +E  E +E
|-------------------------|--------------------------||
|-------------------------|-------------------------o||
|-------------------------|--------------------------||
|---3-2h3p2h3---3-2h3p2h3-|---3-2h3p2h3-8-(8)-7-(7)--||
|-------------------------|-------------------------o||
|-2-----------2-----------|-2-----------6-(6)-5-(5)--||


 Interlude I
  G5/DF#5/C#D5/G       C#5/F#
  Gtr I
   Q   h    Q    Q  Q  Q  +Q     +W           +W
|--------------|---------------|------------|--------|
|--------------|---------------|------------|--------|
|--------------|---------------|------------|--------|
|-12--11----7--|----7--6--(6)--|-(6)--------|-(6)----|
|-10---9----5--|----5--4--(4)--|-(4)--------|-(4)----|
|-10---9----3--|----3--2--(2)--|-(2)--------|-(2)----|


  G5/DF#5/C#C#5/F#      D5/C5/F
  Gtr I
   Q   h    Q    Q   Q  Q  Q    +W           +W
|--------------|--------------|------------|--------|
|--------------|--------------|------------|--------|
|--------------|--------------|------------|--------|
|-12--11----6--|-----6--7--5--|-(5)--------|-(5)----|
|-10---9----4--|-----4--5--3--|-(3)--------|-(3)----|
|-10---9----2--|-----2--3--1--|-(1)--------|-(1)----|
|
| Gtr II
|  W             H.        Q    +W           +W
|--------------|--------------|------------|--------|
|--------------|--------------|------------|--------|
|--------------|--------------|------------|--------|
|--------------|-----------5--|-(5)--------|-(5)----|
|--------------|-----------3--|-(3)--------|-(3)----|
|--------------|-----------1--|-(1)--------|-(1)----|


    G5/DF#5/C#D5/G       C#5/F#
    Gtrs I, II
     Q   h    Q    Q  Q  Q  +Q     +W           +W
||---------------|---------------|------------|--------|
||o--------------|---------------|------------|--------|
||---------------|---------------|------------|--------|
||--12--11----7--|----7--6--(6)--|-(6)--------|-(6)----|
||o-10---9----5--|----5--4--(4)--|-(4)--------|-(4)----|
||--10---9----3--|----3--2--(2)--|-(2)--------|-(2)----|


  G5/DF#5/C#C#5/F#     D5/G
   Q   h    Q    Q  Q  Q  +Q     +W           +W
|--------------|---------------|------------|--------|
|--------------|---------------|------------|--------|
|--------------|---------------|------------|--------|
|-12--11----6--|----6--7--(7)--|-(7)--------|-(7)----|
|-10---9----4--|----4--5--(5)--|-(5)--------|-(5)----|
|-10---9----2--|----2--3--(3)--|-(3)--------|-(3)----|


  G5/DF#5/C#D5/G       C#5/F#
   Q   h    Q    Q  Q  Q  +Q     +W           +W
|--------------|---------------|------------|--------|
|--------------|---------------|------------|--------|
|--------------|---------------|------------|--------|
|-12--11----7--|----7--6--(6)--|-(6)--------|-(6)----|
|-10---9----5--|----5--4--(4)--|-(4)--------|-(4)----|
|-10---9----3--|----3--2--(2)--|-(2)--------|-(2)----|


  G5/DF#5/C#C#5/F#     D5/C5/F
   Q   h    Q    Q  Q  Q  Q    +W           +W
|--------------|-------------|------------|---------||
|--------------|-------------|------------|--------o||
|--------------|-------------|------------|---------||
|-12--11----6--|----6--7--5--|-(5)--------|-(5)-----||
|-10---9----4--|----4--5--3--|-(3)--------|-(3)----o||
|-10---9----2--|----2--3--1--|-(1)--------|-(1)-----||


   Interlude II
    N.C.
    Gtr I
           ~~~~~~~~~~~~~~~~                ~~~~~~~~
    Q  Q   Q   +Q      +W           Q  Q   Q   +Q      a  Q.    Q.   Q
||------------------|-------------|-----------------|-------------------|
||o-----------------|-------------|-----------------|-------------------|
||--------11--(11)--|-(11)--------|-------11--(11)--|-11s12----11----9--|
||-----9------------|-------------|----9------------|-------------------|
||o-7---------------|-------------|-7---------------|-------------------|
||------------------|-------------|-----------------|-------------------|
|
|   Gtr II
|          ~~~~~~~~~~~~~~~~                ~~~~~~~~
|   Q  Q   Q   +Q      +W           Q  Q   Q   +Q      a  Q.    Q.   Q
||------------------|-------------|-----------------|-------------------|
||o-----------------|-------------|-----------------|-------------------|
||------------------|-------------|-----------------|-------------------|
||---------9---(9)--|--(9)--------|--------9---(9)--|--9s10-----9----7--|
||o----7------------|-------------|----7------------|-------------------|
||--7---------------|-------------|-7---------------|-------------------|


  N.C.
          ~~~~~~~~~~~~~~~~                 ~~~~~~~~
  Q   Q   Q   +Q      +W           Q   Q   Q   +Q      a  Q.    Q.    Q
|------------------|-------------|------------------|---------------------|
|------------------|-------------|------------------|---------------------|
|--------12--(12)--|-(12)--------|--------12--(12)--|-12s13----12----10---|
|----10------------|-------------|----10------------|---------------------|
|-8----------------|-------------|-8----------------|---------------------|
|------------------|-------------|------------------|---------------------|
|
|         ~~~~~~~~~~~~~~~~                 ~~~~~~~~
| Q   Q   Q   +Q      +W           Q   Q   Q   +Q      a  Q.    Q.    Q
|------------------|-------------|------------------|---------------------|
|------------------|-------------|------------------|---------------------|
|------------------|-------------|------------------|---------------------|
|--------10--(10)--|-(10)--------|--------10--(10)--|-10s11----10-----8---|
|-----8------------|-------------|-----8------------|---------------------|
|-8----------------|-------------|-8----------------|---------------------|


  N.C.
  Gtr I
         ~~~~~~~~~~~~~~~~                ~~~~~~~~
  Q  Q   Q   +Q      +W           Q  Q   Q   +Q      a  Q.    Q.   Q
|-----------------|-------------|-----------------|--------------------|
|-----------------|-------------|-----------------|--------------------|
|-------11--(11)--|-(11)--------|-------11--(11)--|-11s12----11----9---|
|----9------------|-------------|----9------------|--------------------|
|-7---------------|-------------|-7---------------|--------------------|
|-----------------|-------------|-----------------|--------------------|
|
| Gtr II
|        ~~~~~~~~~~~~~~~~                ~~~~~~~~
| Q  Q   Q   +Q      +W           Q  Q   Q   +Q      a  Q.    Q.   Q
|-----------------|-------------|-----------------|--------------------|
|-----------------|-------------|-----------------|--------------------|
|-----------------|-------------|-----------------|--------------------|
|--------9---(9)--|--(9)--------|--------9---(9)--|--9s10-----9----7---|
|----7------------|-------------|----7------------|--------------------|
|-7---------------|-------------|-7---------------|--------------------|


  N.C.
          ~~~~~~~~~~~~~~~~                ~~~~~~~~
  Q   Q   Q   +Q      +W           Q  Q   Q   +Q      a  Q.    Q.   Q
|------------------|-------------|-----------------|---------------------||
|------------------|-------------|-----------------|--------------------o||
|--------12--(12)--|-(12)--------|-------10--(10)--|-10s11----10----8----||
|----10------------|-------------|----8------------|---------------------||
|-8----------------|-------------|-6---------------|--------------------o||
|------------------|-------------|-----------------|---------------------||
|
|         ~~~~~~~~~~~~~~~~                ~~~~~~~~
| Q   Q   Q   +Q      +W           Q  Q   Q   +Q      a  Q.    Q.   Q
|------------------|-------------|-----------------|---------------------||
|------------------|-------------|-----------------|--------------------o||
|------------------|-------------|-----------------|---------------------||
|--------10--(10)--|-(10)--------|--------8---(8)--|--8s=9-----8----6----||
|-----8------------|-------------|----6------------|--------------------o||
|-8----------------|-------------|-6---------------|---------------------||


 Solo - Mameli
  Q=120
  N.C.
  Gtr III
   E     +Q.          H             E.      +E         +E        +S   E.    E.     E
|-12----(12)---------12----------|-12------(12)-------(12)------(12)-12----14-----15-|
|-15b17r(15)b17------15b17r======|=15b17r==(15)b17r===(15)b17r==(15)-----------------|
|--------------------------------|---------------------------------------------------|
|--------------------------------|---------------------------------------------------|
|--------------------------------|---------------------------------------------------|
|--------------------------------|---------------------------------------------------|
|
| Gtr IV
|  E      E      E E  E    E E E    E    E          E         E       E  E      E  E
|--------------------------------|---------------------------------------------------|
|------------------8-------------|-------8-------------------------------------------|
|---------------11---11----------|-11--------------11--------------------------11----|
|---------9----------------9---9-|----------------------------9----------9---------9-|
|--7-------------------------7---|------------------------------------7--------------|
|--------------------------------|---------------------------------------------------|


   ~~~~~~~~~~~~~               ~~~
   H        +E   E.    E.      H.            E  E
|-14-------(14)-------------|----------------------|
|---------------12----------|----------------------|
|---------------------12----|-11------------11-----|
|---------------------------|------------------12--|
|---------------------------|----------------------|
|---------------------------|----------------------|
|
|  E E E E   E   E  E     E    E  E E E E E  E  E
|---------------------------|----------------------|
|--------7------------------|-----7----------------|
|------9-----9--------------|--9----9--------9-----|
|----7-----------7--------7-|---------7---7-----7--|
|--5----------------5-------|-----------5----------|
|---------------------------|----------------------|


  N.C.
  ~~        ~
  Q.      E H         +E  +E   E  E E  E  Q
|-------------------|----------------------------|
|-------------------|----------------------------|
|-------------------|------------12------11b12r==|
|-9------10-9-------|-(9)-(9)-10----9-10---------|
|-------------------|----------------------------|
|-------------------|----------------------------|
|
| E  E E  E E E E E    E   E   E  E E  E  E    E
|-------------------|----------------------------|
|---------5---------|------5---------------------|
|------7----7-------|--7-------7----------7------|
|----5--------5---5-|-------------5----5-------5-|
|-3-------------3---|---------------3------------|
|-------------------|----------------------------|


    ~~~~~                  ~~       ~
   +H..             S  S   Q.     E H
|------------------------|-------------------|
|------------------------|-------------------|
|-(11)-------------------|-------------------|
|-------------------9-10-|-9------7----------|
|------------------------|----------9--------|
|------------------------|-------------------|
|
|   E   E E E E E E E      E  E E E E E E E
|------------------------|-------------------|
|-----------7------------|----7--------------|
|---------9---9----------|-9----9-------9----|
|-------7-------7---7----|--------7---7---7--|
|---5-------------5------|----------5--------|
|------------------------|-------------------|


  N.C.
                ~~~~
   E  E  E  E  +H           E  E  E  E  E  E  E  E
|------------------------|-------------------------|
|------------------------|-------------------------|
|------------------------|-------------------------|
|------------------------|----------------12----12-|
|------------------------|-------12-14-15----15----|
|-14-15-14-12-(12)-------|-14-15-------------------|
|
|  E  E  E  E   E  E E E    E  E  E  E  E  E  E  E
|------------------------|-------------------------|
|-----------8------------|-----8-------------------|
|-------11-----11--------|-11----11----------11----|
|-----9------------9---9-|-----------9-----9-----9-|
|--7-----------------7---|--------------7----------|
|------------------------|-------------------------|


                                ~~~~~~~~~~~~~
   E  E  E  E  e.    e.    E    H        +E   E.    E.
|----------------------------|---------------------------|
|-------------12----13----12-|---------------12----13----|
|----11-12-14----------------|-14-------(14)-------------|
|-14-------------------------|---------------------------|
|----------------------------|---------------------------|
|----------------------------|---------------------------|
|
|  E  E  E  E  E  E     E  E    E E E E   E   E  E     E
|----------------------------|---------------------------|
|-----------7----------------|----7----------------------|
|--------9-----9-------------|--9---9------------9-------|
|-----7-----------7--------7-|--------7-------7--------7-|
|--5--------------------5----|------------5--------------|
|----------------------------|---------------------------|


  N.C.
                       ~~
                                          |---3---|  |---3---|  |---3---|
   Q        +E   S  S  H          +E   E  E  E    E  E  E    E  E  E    E
|------------------------------|----------------------------------15------|
|-13b15====(13)r13-12-13-------|-(13)------------------15---17-19---------|
|------------------------------|------------14---16-17-----------------17-|
|------------------------------|------16-17-------------------------------|
|------------------------------|------------------------------------------|
|------------------------------|------------------------------------------|
|
|  E     E   E   E     E E E E     E   E  E    E     E    E     E    E
|------------------------------|------------------------------------------|
|----------------5-------------|-------5----------------------------------|
|------------7---------7-------|---7------7---------------------7---------|
|--------5---------------5---5-|---------------5----------5----------5----|
|--3-----------------------3---|---------------------3--------------------|
|------------------------------|------------------------------------------|


                                                                      ~~
   |---3---|  |---3---|  |---3---|  |---3---|
   E  E    E  E  E    E  E  E    E  E  E    E    E      +Q      S  S  H
|------------15-17-----------------15-17------|-17b19==(17)r---17-15-17----------|
|-15-17---19------------15-17---19---------19-|----------------------------------|
|--------------------17-----------------------|----------------------------------|
|---------------------------------------------|----------------------------------|
|---------------------------------------------|----------------------------------|
|---------------------------------------------|----------------------------------|
|
|  E    E     E    E     E    E     E    E       E       E   E  E     E E E E
|---------------------------------------------|----------------------------------|
|------------------7--------------------------|----------7-----------------------|
|-------------9----------9--------------------|--9-----------9------------9------|
|-------7---------------------7----------7----|-----------------7-------7---7----|
|--5--------------------------------5---------|-----------------------5----------|
|---------------------------------------------|----------------------------------|


 Solo - Uterwijk
  Q=220
  N.C.
  Gtr III
  \3                         \5                      \3
  W                          W                       W
|--------------------------|----------------------|-(5)------------------------|
|--------------------------|----------------------|-(5)------------------------|
|--------------------------|----------------------|-(5)------------------------|
|--------------------------|----------------------|----------------------------|
|--------------------------|-9--------------------|----------------------------|
|-2------------------------|----------------------|----------------------------|
|
| Gtrs I, II
| PM-|         PM|           PM-|                    PM-|         PM|
| E  E S S S S E E S S S S   E  E S S S S E E E E    E  E S S S S E E S S S S
|--------------------------|----------------------|----------------------------|
|--------------------------|----------------------|----------------------------|
|--------------------------|----------------------|----------------------------|
|----3-2h3p2h3---3-2h3p2h3-|----3-2h3p2h3---------|-----3-2h3p2h3---3-2h3p2h3--|
|--------------------------|--------------6-5-4-3-|----------------------------|
|-2------------2-----------|-2--------------------|--2------------2------------|


  N.C.
                   \2.5
   H              +H
|---------------------------------|
|-10pb12r========(10)-------------|
|---------------------------------|
|---------------------------------|
|---------------------------------|
|---------------------------------|
|
|  PM----|
|  E     E S S E   E    +E  E +E
|---------------------------------|
|---------------------------------|
|---------------------------------|
|--------3-2h3-3s==8----(8)-7-(7)-|
|---------------------------------|
|--2-----------1s==6----(6)-5-(5)-|


                 \1             \5_____|
   +H            Q    Q         Q     +H.
|---------------------5-------|------------------------|
|-(10)-----------7------------|-7-----(7)--------------|
|-----------------------------|------------------------|
|-----------------------------|------------------------|
|-----------------------------|------------------------|
|-----------------------------|------------------------|
|
|   PM-|         PM-|           PM--|
|   E  E S S S S E  E S S S S   E   E  S S S S E E E E
|-----------------------------|------------------------|
|-----------------------------|------------------------|
|-----------------------------|------------------------|
|------3-2h3p2h3----3-2h3p2h3-|-----3--2h3p2h3---------|
|-----------------------------|----------------6-5-4-3-|
|---2------------2------------|-2----------------------|


  N.C.
  |--3--| |---3---|   |--3--| |---3---|
  E E   E E   E   E   E E   E E   E   E
|---------7---6-------8-7-----7---5-------|
|-9-8---6---------9---------6-------------|
|-------------------------------------5---|
|-----------------------------------------|
|-----------------------------------------|
|-----------------------------------------|
|
| PM--|               PM--|
| E   E   S S   S   S E   E   S S   S   S
|-----------------------------------------|
|-----------------------------------------|
|-----------------------------------------|
|-----3---2h3p==2h==3-----3---2h3p==2h==3-|
|-----------------------------------------|
|-2-------------------2-------------------|


                  |---3---| |---3---|
  Q      +Q       E E     E E E     E
|-------------------------------------|
|-6------(6)--------3-----------------|
|-8b10---(8)------4-------1-4-------1-|
|-----------------------------3-------|
|-------------------------------------|
|-------------------------------------|
|
| PM---|
| E    E  S S S S E   +E    E   +E
|-------------------------------------|
|-------------------------------------|
|-------------------------------------|
|------3--2h3p2h3-8---(8)---7---(7)---|
|-------------------------------------|
|-2---------------6---(6)---5---(5)---|


  N.C.
                            \2                        \2
  E E E   E   H             W                       a W
|-------------------------|----------------------|-----------------------------|
|-------------------------|----------------------|-----------------------------|
|-------------------------|----------------------|-----------------------------|
|-------------------------|----------------------|-----------------------------|
|-2-5---------------------|----------------------|-11p8------------------------|
|-----1---4---1-----------|-1--------------------|-----------------------------|
|
| PM|         PM|           PM-|                      PM-|         PM|
| E E S S S S E E S S S S   E  E S S S S E E E E      E  E S S S S E E S S S S
|-------------------------|----------------------|-----------------------------|
|-------------------------|----------------------|-----------------------------|
|-------------------------|----------------------|-----------------------------|
|---3-2h3p2h3---3-2h3p2h3-|----3-2h3p2h3---------|-------3-2h3p2h3---3-2h3p2h3-|
|-------------------------|--------------6-5-4-3-|-----------------------------|
|-2-----------2-----------|-2--------------------|----2------------2-----------|


  N.C.
  \2
                            |---3---|  |----3----|    |---3---|  |----3----|
  W                         E  E    E  E    E    E    E  E    E  E    E    E
|------------------------|-16-15---13-15---13--------13------------------------|
|-1----------------------|----------------------16------16---13-14---13--------|
|-1----------------------|------------------------------------------------13---|
|------------------------|-----------------------------------------------------|
|------------------------|-----------------------------------------------------|
|------------------------|-----------------------------------------------------|
|
| PM-|                      PM---|                    PM---|
| E  E S S E E +E  E +E     E    E     S S    S    S  E    E     S S    S    S
|------------------------|-----------------------------------------------------|
|------------------------|-----------------------------------------------------|
|------------------------|-----------------------------------------------------|
|----3-2h3-3s8-(8)-7-(7)-|-------3-----2h3p===2h===3-------3-----2h3p===2h===3-|
|------------------------|-----------------------------------------------------|
|-2--------1s6-(6)-5-(5)-|--2-------------------------2------------------------|


   |---3---|  |----3----|    |---3---|  |---3---|
   E  E    E  E    E    E    E  E    E  E  E    E
|--------------------------------------------------|
|-16-13--------------------------------------------|
|------------13---12--------12-13---12---------12--|
|---------15-----------13--------------15----------|
|-----------------------------------------15-------|
|--------------------------------------------------|
|
|  PM---|
|  E    E     S S    S    S  E    E     E    E
|--------------------------------------------------|
|--------------------------------------------------|
|--------------------------------------------------|
|-------3-----2h3p===2h===3------------------------|
|----------------------------6----5-----4----3-----|
|--2-----------------------------------------------|


  N.C.
   |---3---|  |----3----|    |---3---|  |----3----|
   E  E    E  E    E    E    E  E    E  E    E    E
|----------------------13---16-15------18---16---15---|
|---------13-14---16----------------18----------------|
|-13-15-----------------------------------------------|
|-----------------------------------------------------|
|-----------------------------------------------------|
|-----------------------------------------------------|
|
|  PM---|                    PM---|
|  E    E     S S    S    S  E    E     S S    S    S
|-----------------------------------------------------|
|-----------------------------------------------------|
|-----------------------------------------------------|
|-------3-----2h3p===2h===3-------3-----2h3p===2h===3-|
|-----------------------------------------------------|
|--2-------------------------2------------------------|


   Q       +E     E     E    E    E    E
|-18b20---(18)--(18)--(18)-(18)-(18)-(18)--|
|------------------------------------------|
|------------------------------------------|
|------------------------------------------|
|------------------------------------------|
|------------------------------------------|
|
|  PM---|
|  E    E   S S   S S   E   +E    E   +E
|------------------------------------------|
|------------------------------------------|
|------------------------------------------|
|-------3---2h3p==2h3---8---(8)---7---(7)--|
|------------------------------------------|
|--2--------------------6---(6)---5---(5)--|


 Guitar Break
  N.C.
  Gtr I
  TP TP TP TP   TP TP TP TP   TP TP TP TP   TP TP PM----|
  Q  Q  Q  Q    Q  Q  Q  Q    Q  Q  Q  Q    Q  Q  E E E E
|-------------|-------------|-------------|---------------|
|-------------|-------------|-------------|---------------|
|-------------|-------------|-------------|---------------|
|-------------|-------------|-------------|---------------|
|-------------|-------------|-------------|---------------|
|-7--3--0--7--|-3--0--6--3--|-7--3--0--7--|-3--0--6-5-4-3-|
|
| Gtr II
|                                                 PM----|
| W             W             W             H     E E E E
|-------------|-------------|-------------|---------------|
|-------------|-------------|-------------|---------------|
|-------------|-------------|-------------|---------------|
|-------------|-------------|-------------|---------------|
|-------------|-------------|-------------|---------------|
|-------------|-------------|-------------|-------6-5-4-3-|


   Verse
    N.C.
    Gtrs I, II
    TP TP TP TP   TP TP TP TP   TP TP TP TP   TP TP PM----|
    Q  Q  Q  Q    Q  Q  Q  Q    Q  Q  Q  Q    Q  Q  E E E E   4x
||--------------|-------------|-------------|-----------------||
||o-------------|-------------|-------------|----------------o||
||--------------|-------------|-------------|-----------------||
||--------------|-------------|-------------|-----------------||
||o-------------|-------------|-------------|----------------o||
||--7--3--0--7--|-3--0--6--3--|-7--3--0--7--|-3--0--6-5-4-3---||


   Chorus
    N.C.
    PM|         PM|           PM|                   PM|         PM|
    E E S S S S E E S S S S   E E S S S S E E E E   E E S S S S E E S S S S
||--------------------------|---------------------|-------------------------|
||o-------------------------|---------------------|-------------------------|
||--------------------------|---------------------|-------------------------|
||----3-2h3p2h3---3-2h3p2h3-|---3-2h3p2h3---------|---3-2h3p2h3---3-2h3p2h3-|
||o-------------------------|-------------6-5-4-3-|-------------------------|
||--2-----------2-----------|-2-------------------|-2-----------2-----------|


  N.C.
  PM|                     PM|         PM|           PM|
  E E S S E E +E  E +E    E E S S S S E E S S S S   E E S S S S E E E E
|-----------------------|-------------------------|---------------------|
|-----------------------|-------------------------|---------------------|
|-----------------------|-------------------------|---------------------|
|---3-2h3-3s8-(8)-7-(7)-|---3-2h3p2h3---3-2h3p2h3-|---3-2h3p2h3---------|
|-----------------------|-------------------------|-------------6-5-4-3-|
|-2-------1s6-(6)-5-(5)-|-2-----------2-----------|-2-------------------|


  N.C.
  PM|         PM|           PM|
  E E S S S S E E S S S S   E E S S S S E +E  E +E
|-------------------------|--------------------------||
|-------------------------|-------------------------o||
|-------------------------|--------------------------||
|---3-2h3p2h3---3-2h3p2h3-|---3-2h3p2h3-8-(8)-7-(7)--||
|-------------------------|-------------------------o||
|-2-----------2-----------|-2-----------6-(6)-5-(5)--||


   Outro
    N.C.
    PM-|                    PM-|
    q  q  S S S S S S S S   q  q  Q  Q
||------------------------|-------------|
||o-----------------------|-------------|
||------------------------|-------------|
||-----3--2h3p2h3p2h3p2h3-|----3--2-----|
||o-----------------------|----------5--|
||--2---------------------|-2-----------|


  PM-|                    PM-------|
  q  q  S S S S S S S S   q  q  q  q   4x
|-----------------------|--------------||
|-----------------------|-------------o||
|-----------------------|--------------||
|----3--2h3p2h3p2h3p2h3-|-8--7--6--4---||
|-----------------------|-6--5--4--2--o||
|-2---------------------|--------------||



Duration Legend
---------------
W - whole; H - half; Q - quarter; E - 8th; S - 16th; T - 32nd; X - 64th; a - acciaccatura
+ - note tied to previous; . - note dotted; .. - note double dotted
Uncapitalized letters represent notes that are staccato (1/2 duration)
Irregular groupings are notated above the duration line
Duration letters will always appear directly above the note/fret number it represents the
duration for.  Duration letters with no fret number below them represent rests.  Multi-
bar rests are notated in the form Wxn, where n is the number of bars to rest for.  Low
melody durations appear below the staff

Tablature Legend
----------------
 h   - hammer-on
 p   - pull-off
 b   - bend
 pb  - pre-bend
 r   - bend release (if no number after the r, then release immediately)
 /\  - slide into or out of (from/to "nowhere")
 s   - legato slide
 S   - shift slide
 - natural harmonic
[n]  - artificial harmonic
n(n) - tapped harmonic
 ~   - vibrato
 tr  - trill
 T   - tap
 TP  - trem. picking
 PM  - palm muting
\n/  - tremolo bar dip; n = amount to dip
 \n  - tremolo bar down
 n/  - tremolo bar up
/n\  - tremolo bar inverted dip
 =   - hold bend; also acts as connecting device for hammers/pulls
 <> - volume swell (louder/softer)
 x   - on rhythm slash represents muted slash
 o   - on rhythm slash represents single note slash

Misc Legend
-----------
 |  - bar
||  - double bar
||o - repeat start
o|| - repeat end
*|  - double bar (ending)
 :  - bar (freetime)
 $  - Segno
 &  - Coda
Tempo markers -  = BPM(8/16=s8/s16), where s8 = swing 8ths, s16 = swing 16ths

comments
We did not receive enough feedback on this tab! Please rate:
print report bad tab
1 2 3 4 5
I want to post or [tab]
guest
You may want to rate the tab now too:
select rating
Please do not post tabs as comments. Select "correction" instead!