Oops, an error
Loading. Please wait.

Twisted Truth Tab

ver1
ver1

Whole song

Interactive

More versions @911Tabs.com
1,542 views 12 this week
no commentswrite comment
1 2 3 4 5
please rate
Autoscroll
+/-
esc
set tempo
stop
Contributor
Hey! There's an official Ultimate Guitar app which is ideal
for learning songs when you're away from computer. Get the app
WARNING: You are trying to view
                                    content from Ultimate-Guitar.com
                                    in an unauthorized application,
                                    which is prohibited.

                                    Please use an official Ultimate
                                    Guitar Tabs application for iPhone,
                                    iPad or Android to access legitimate
                                    chords, guitar, bass, and drum tabs
                                    from Ultimate-Guitar.com database.

                                    Type "ultimate guitar tabs" in Apple
                                    App Store's or Android Market's
                                    search to find the application.
#----------------------------------PLEASE NOTE---------------------------------#
#This file is the author's own work and represents their interpretation of the #
#song. You may only use this file for private study, scholarship, or research. #
#------------------------------------------------------------------------------#

TWISTED TRUTH
As recorded by Pestilence
(From the 1991 Album TESTIMONY OF THE ANCIENTS)

Transcribed by The Foreverlorn
        

Words by Marco Foddis Music by Patrick Mameli, Patrick Uterwijik

Gtr I (E A D G B E) - 'Untitled'
Gtr II (E A D G B E) - 'Untitled'
Gtr III (E A D G B E) - 'Untitled'

 Intro
  Q=165
  E5 F#5       A5 G5        E5 F#5       B5 Bb5
 4/4
  Gtr I
  Q  H.        Q  H.        Q  H.        Q  H.
|------------|------------|------------|-----------------------------|
|------------|------------|------------|-----------------------------|
|------------|------------|------------|-----------------------------|
|------------|------------|------------|-----------------------------|
|-2--4-------|-7--5-------|-2--4-------|-9--8------------------------|
|-0--2-------|-5--3-------|-0--2-------|-7--6------------------------|
|
| Gtr II
|                                           TPTPTPTPTPTPTPTPTPTPTPTP
| W            W            W            Q  S S S S S S S S S S S S
|------------|------------|------------|-----------------------------|
|------------|------------|------------|-----------------------------|
|------------|------------|------------|-----------------------------|
|------------|------------|------------|-----------------------------|
|------------|------------|------------|----xSxSxSxSxSxSxSxSxSxSxSx--|
|------------|------------|------------|-----------------------------|


  E5 F#5       A5 G5        E5 F#5       B5 C5
  Gtrs I, II
  Q  H.        Q  H.        Q  H.        Q   H.
|------------|------------|------------|-----------|
|------------|------------|------------|-----------|
|------------|------------|------------|-----------|
|------------|------------|------------|-----------|
|-2--4-------|-7--5-------|-2--4-------|-9--10-----|
|-0--2-------|-5--3-------|-0--2-------|-7---8-----|


  E5 F#5       A5 G5        E5 F#5       B5 Bb5
  Q  H.        Q  H.        Q  H.        Q  H.
|------------|------------|------------|----------|
|------------|------------|------------|----------|
|------------|------------|------------|----------|
|------------|------------|------------|----------|
|-2--4-------|-7--5-------|-2--4-------|-9--8-----|
|-0--2-------|-5--3-------|-0--2-------|-7--6-----|


  E5 F#5       A5 G5        E5 F#5       B5 C5
  Q  H.        Q  H.        Q  H.        Q   H.
|------------|------------|------------|-----------|
|------------|------------|------------|-----------|
|------------|------------|------------|-----------|
|------------|------------|------------|-----------|
|-2--4-------|-7--5-------|-2--4-------|-9--10-----|
|-0--2-------|-5--3-------|-0--2-------|-7---8-----|


   Verse
    E5 F#5       A5 G5        E5 F#5       B5 Bb5
    Q  H.        Q  H.        Q  H.        Q  H.
||-------------|------------|------------|----------|
||o------------|------------|------------|----------|
||-------------|------------|------------|----------|
||-------------|------------|------------|----------|
||o-2--4-------|-7--5-------|-2--4-------|-9--8-----|
||--0--2-------|-5--3-------|-0--2-------|-7--6-----|


  E5 F#5       A5 G5        E5 F#5       B5 C5
  Q  H.        Q  H.        Q  H.        Q   H.
|------------|------------|------------|------------||
|------------|------------|------------|-----------o||
|------------|------------|------------|------------||
|------------|------------|------------|------------||
|-2--4-------|-7--5-------|-2--4-------|-9--10-----o||
|-0--2-------|-5--3-------|-0--2-------|-7---8------||


   Chorus
    N.C.                                                 F#5 F5
    PM----------------------------------------------|
    S S S S S S S S S S S S S S S S   S S S S S S S S  a  Q   Q
||----------------------------------|----------------------------|
||o---------------------------------|----------------------------|
||----------------------------------|-----------------10s11--10--|
||----------------------------------|-----------------10s11--10--|
||o---------------------------------|------------------8s=9---8--|
||--0-0-0-0-0-0-0-0-0-0-0-0-0-0-0-0-|-0-0-0-0-0-0-0-0------------|


  N.C.                                              F5
  PM----------------------------------------------|
  S S S S S S S S S S S S S S S S   S S S S S S S S  Q   +Q
|---------------------------------|-----------------------------||
|---------------------------------|----------------------------o||
|---------------------------------|-----------------10--(10)\---||
|---------------------------------|-----------------10--(10)\---||
|---------------------------------|------------------8---(8)\--o||
|-0-0-0-0-0-0-0-0-0-0-0-0-0-0-0-0-|-0-0-0-0-0-0-0-0-------------||


 Lead Uterwijk
  Am        Am/C              Am
  Gtr II
    ~~~~     PM|      ~~~~
    H.       E  E     H.       E  E
|-----------------|-----------------|
|-----------------|-----------------|
|-----------------|-----------12-11-|
|-----------------|-/14-------------|
|-/12-------15-12-|-----------------|
|-----------------|-----------------|
|
| Gtr I
|   H.       q        H.       q
|---0--------0----|---0--------0----|
|---1--------1----|---1--------1----|
|---2--------2----|---2--------2----|
|---2--------2----|---2--------2----|
|---0--------3----|---3--------0----|
|-----------------|-----------------|
|
| Gtr III
|   W                 W
|---5-------------|--(5)------------|
|-----------------|-----------------|
|---2-------------|--(2)------------|
|-----------------|-----------------|
|---0-------------|---3-------------|
|-----------------|-----------------|


                     Am/C
   E   E  E  E  E  E  E  E    E   E  E  E  E  E  E E
|--------------------------|-------------------------|
|--------------------------|-------------------------|
|-12--11----------11-12-14-|-12--11------------------|
|-----------12-14----------|--------14-12-14-12-10-7-|
|--------14----------------|-------------------------|
|--------------------------|-------------------------|
|
|  H.                 q       W
|--0------------------0----|--0----------------------|
|--1------------------1----|--1----------------------|
|--2------------------2----|--2----------------------|
|--2------------------2----|--2----------------------|
|--0------------------3----|--3----------------------|
|--------------------------|-------------------------|
|
|  W                          W
|-(5)----------------------|-(5)---------------------|
|--------------------------|-------------------------|
|-(2)----------------------|-(2)---------------------|
|--------------------------|-------------------------|
|--0-----------------------|--3----------------------|
|--------------------------|-------------------------|


  Em      Em/G           Em                  Em/G
  ~~             ~~~              PM----------------------------------|
  H.      E E    W            +E  E E E  E E E  E    E  E  E E E  E E E
|-------------|-------------|---------------------|---------------------|
|-------------|-------------|---------------------|---------------------|
|-9-----------|-------------|---------------------|---------------------|
|---------7-9-|-------------|---------------------|--7--9-10-9-7----7-9-|
|-------------|--7----------|-(7)---7-9-10-9-9-10-|--------------10-----|
|-------------|-------------|-----7---------------|---------------------|
|
| H.      q      H.      q     H.            q       W
|-------------|-------------|---------------------|---------------------|
|-------------|-------------|---------------------|---------------------|
|-0-------0---|--0-------0--|--0-------------0----|--0------------------|
|-2-------2---|--2-------2--|--2-------------2----|--2------------------|
|-2-------2---|--2-------2--|--2-------------2----|--2------------------|
|-0-------3---|--3-------0--|--0-------------3----|--3------------------|
|
| W              W             W                     W
|-------------|-------------|---------------------|---------------------|
|-5-----------|-(5)---------|-(5)-----------------|-(5)-----------------|
|-------------|-------------|---------------------|---------------------|
|-2-----------|-(2)---------|-(2)-----------------|-(2)-----------------|
|-------------|-------------|---------------------|---------------------|
|-0-----------|--3----------|--0------------------|--3------------------|


  Am                             Am/C             Am
                                                   \1
                    ~~~~~~~~~~~~~         ~~~
   E     +E   +E   +E   +E   +E   E  E    H.       Q
|--------------------------------------|---------------|
|--------------------------------13-12-|-13-------12---|
|-12b14-(12)-(12)-(12)-(12)-(12)-------|---------------|
|--------------------------------------|---------------|
|--------------------------------------|---------------|
|--------------------------------------|---------------|
|
|  H.                             q       H.       q
|--0------------------------------0----|--0--------0---|
|--1------------------------------1----|--1--------1---|
|--2------------------------------2----|--2--------2---|
|--2------------------------------2----|--2--------2---|
|--0------------------------------3----|--3--------0---|
|--------------------------------------|---------------|
|
|  W                                      W
|--5-----------------------------------|-(5)-----------|
|--------------------------------------|---------------|
|--2-----------------------------------|-(2)-----------|
|--------------------------------------|---------------|
|--0-----------------------------------|--3------------|
|--------------------------------------|---------------|


                                 Am/C
                                                              |--3--|
   E  S S  S  S  +E   E      +E   +E   +E     +E   +E   E  E  Q  Q  Q
|------------------------------------------|-----------------------------|
|---------18-15-(15)-17b18==(17)-(17)-(17)-|-(17)r(17)-15----------------|
|-------x----------------------------------|--------------17-16-14-------|
|-----x------------------------------------|-----------------------17----|
|------------------------------------------|-----------------------------|
|------------------------------------------|-----------------------------|
|
|  H.                              q           W
|--0-------------------------------0-------|---0-------------------------|
|--1-------------------------------1-------|---1-------------------------|
|--2-------------------------------2-------|---2-------------------------|
|--2-------------------------------2-------|---2-------------------------|
|--0-------------------------------3-------|---3-------------------------|
|------------------------------------------|-----------------------------|
|
|  W                                           W
|-(5)--------------------------------------|--(5)------------------------|
|------------------------------------------|-----------------------------|
|-(2)--------------------------------------|--(2)------------------------|
|------------------------------------------|-----------------------------|
|--0---------------------------------------|---3-------------------------|
|------------------------------------------|-----------------------------|


  Em       Em/G           Em                         Em/G
   ~~~            ~~~~~~~~~~~~~~~~~~          ~~~~~~~~~~~~~~~~~~
   H.       Q     W             +E   E  E  E  E  +E   +E   +E
|--------------|-------------|---------------------------------|
|--------------|-------------|---------------------------------|
|--------------|-------------|---------------------------------|
|-16-------17--|-------------|---------------------------------|
|--------------|-19----------|-(19)-------17-19-(19)-(19)-(19)-|
|--------------|-------------|------17-19----------------------|
|
|  H.       q     H.      q      H.                    q
|--------------|-------------|---------------------------------|
|--------------|-------------|---------------------------------|
|--0--------0--|--0-------0--|---0---------------------0-------|
|--2--------2--|--2-------2--|---2---------------------2-------|
|--2--------2--|--2-------2--|---2---------------------2-------|
|--0--------3--|--3-------0--|---0---------------------3-------|
|
|  W              W              W
|--------------|-------------|---------------------------------|
|--5-----------|-(5)---------|--(5)----------------------------|
|--------------|-------------|---------------------------------|
|--2-----------|-(2)---------|--(2)----------------------------|
|--------------|-------------|---------------------------------|
|--0-----------|--3----------|---0-----------------------------|


 ~~~~~~          ~~~~~~~~~~~~~~~~~
   +E   E  E  E  E  +E   +E   +E
|---------------------------------|
|---------------------------------|
|---------------------------------|
|------17-16-19-17-(17)-(17)-(17)-|
|-(19)----------------------------|
|---------------------------------|
|
|   W
|---------------------------------|
|---------------------------------|
|---0-----------------------------|
|---2-----------------------------|
|---2-----------------------------|
|---3-----------------------------|
|
|   W
|---------------------------------|
|--(5)----------------------------|
|---------------------------------|
|--(2)----------------------------|
|---------------------------------|
|---3-----------------------------|


 Verse
  E5    F#5            A5 G5        E5 F#5       B5 Bb5
  Gtr I
    Q   H.             Q  H.        Q  H.        Q  H.
|--------------------|------------|------------|----------|
|--------------------|------------|------------|----------|
|--------------------|------------|------------|----------|
|--------------------|------------|------------|----------|
|---2---4------------|-7--5-------|-2--4-------|-9--8-----|
|---0---2------------|-5--3-------|-0--2-------|-7--6-----|
|
| Gtr II
|   ~~~~~~~~~~~~~~~~
|  +H.         +Q      Q  H.        Q  H.        Q  H.
|--------------------|------------|------------|----------|
|--------------------|------------|------------|----------|
|--------------------|------------|------------|----------|
|-(17)--------(17)\--|------------|------------|----------|
|--------------------|-7--5-------|-2--4-------|-9--8-----|
|--------------------|-5--3-------|-0--2-------|-7--6-----|


  E5 F#5       A5 G5        E5 F#5       B5 C5
  Gtrs I, II
  Q  H.        Q  H.        Q  H.        Q   H.
|------------|------------|------------|-----------|
|------------|------------|------------|-----------|
|------------|------------|------------|-----------|
|------------|------------|------------|-----------|
|-2--4-------|-7--5-------|-2--4-------|-9--10-----|
|-0--2-------|-5--3-------|-0--2-------|-7---8-----|


  E5 F#5       A5 G5        E5 F#5       B5 Bb5
  Q  H.        Q  H.        Q  H.        Q  H.
|------------|------------|------------|----------|
|------------|------------|------------|----------|
|------------|------------|------------|----------|
|------------|------------|------------|----------|
|-2--4-------|-7--5-------|-2--4-------|-9--8-----|
|-0--2-------|-5--3-------|-0--2-------|-7--6-----|


  E5 F#5       A5 G5        E5 F#5       B5 C5
  Q  H.        Q  H.        Q  H.        Q   H.
|------------|------------|------------|-----------|
|------------|------------|------------|-----------|
|------------|------------|------------|-----------|
|------------|------------|------------|-----------|
|-2--4-------|-7--5-------|-2--4-------|-9--10-----|
|-0--2-------|-5--3-------|-0--2-------|-7---8-----|


   Chorus
    N.C.                                                 F#5 F5
    PM----------------------------------------------|
    S S S S S S S S S S S S S S S S   S S S S S S S S  a  Q   Q
||----------------------------------|----------------------------|
||o---------------------------------|----------------------------|
||----------------------------------|-----------------10s11--10--|
||----------------------------------|-----------------10s11--10--|
||o---------------------------------|------------------8s=9---8--|
||--0-0-0-0-0-0-0-0-0-0-0-0-0-0-0-0-|-0-0-0-0-0-0-0-0------------|


  N.C.                                              F5
  PM----------------------------------------------|
  S S S S S S S S S S S S S S S S   S S S S S S S S  Q   +Q     4x
|---------------------------------|-----------------------------||
|---------------------------------|----------------------------o||
|---------------------------------|-----------------10--(10)\---||
|---------------------------------|-----------------10--(10)\---||
|---------------------------------|------------------8---(8)\--o||
|-0-0-0-0-0-0-0-0-0-0-0-0-0-0-0-0-|-0-0-0-0-0-0-0-0-------------||


   Interlude
    N.C.
      PM|   PM|   PM    PM|   PM|   PM
    E E E E E E E E   E E E E E E E E  4x
||------------------|------------------||
||o-----------------|-----------------o||
||------------------|------------------||
||------------------|------------------||
||o-6-----6-----5---|-6-----6-----4---o||
||----5-2---5-2---4-|---5-2---5-2---3--||


 Bridge
  N.C.
  Gtr I
  E E E E E E E E   E E E E E  E  E E
|-----------------|-------------------|
|-----------------|-------------------|
|-----------------|-------------------|
|-5-4---6-5---7-6-|-8-7---9-8----10-9-|
|-----6-----7-----|-----9-----10------|
|-----------------|-------------------|
|
| Gtr II
| E E E E E E E E   E E E E E  E  E E
|-----------------|-------------------|
|-----------------|-------------------|
|-----------------|-------------------|
|-----------------|-------------------|
|-3-2---4-3---5-4-|-6-5---7-6-----8-7-|
|-----4-----5-----|-----7------8------|


 Lead Mameli
  E+sus2/C                         Dadd11/C
  Gtr I
                                           ~~~~~~~~~~~~~~~~~
                |--3--|
   E   E  E  E  S  S  S  E  E  E    E   E  E  +E   +E   +E   E  E
|--------12-15-14h15p14-10-14-12-|-----12-------------------------|
|-13--15-------------------------|-13-----12-(12)-(12)-(12)-------|
|--------------------------------|--------------------------14-12-|
|--------------------------------|--------------------------------|
|--------------------------------|--------------------------------|
|--------------------------------|--------------------------------|
|
| Gtr II
|  H.                       q       H.                       q
|--------------------------------|--------------------------------|
|--5------------------------5----|--7------------------------7----|
|--5------------------------5----|--7------------------------7----|
|--4------------------------4----|--5------------------------5----|
|--3------------------------3----|--3------------------------3----|
|--------------------------------|--------------------------------|
|
| Gtr III
|  W                                W
|--------------------------------|--------------------------------|
|--------------------------------|--3-----------------------------|
|--5-----------------------------|--------------------------------|
|--------------------------------|--------------------------------|
|--3-----------------------------|-(3)----------------------------|
|--------------------------------|--------------------------------|


  E+sus2/C                                     Dadd11/C
                      ~~~~~~~~~~~~~~~~~~~~~~~~~~~~~~~~~~~~~~~~~~~~~
                                                                    |-3-|
   E   +E       +E   +E   +E   +E   +E   +E     +E   +E   +E   +E   Q Q Q
|--------------------------------------------|-------------------------------|
|--------------------------------------------|-------------------------------|
|-11--(11)b12==(11)r(11)-(11)-(11)-(11)-(11)-|-(11)-(11)-(11)-(11)-12-9------|
|--------------------------------------------|--------------------------9----|
|--------------------------------------------|-------------------------------|
|--------------------------------------------|-------------------------------|
|
|  H.                                q           W
|--------------------------------------------|-------------------------------|
|--5---------------------------------5-------|---7---------------------------|
|--5---------------------------------5-------|---7---------------------------|
|--4---------------------------------4-------|---5---------------------------|
|--3---------------------------------3-------|---3---------------------------|
|--------------------------------------------|-------------------------------|
|
|  W                                             W
|--------------------------------------------|-------------------------------|
|--------------------------------------------|---3---------------------------|
|--5-----------------------------------------|-------------------------------|
|--------------------------------------------|-------------------------------|
|-(3)----------------------------------------|--(3)--------------------------|
|--------------------------------------------|-------------------------------|


  Em              Esus4
   ~~~      PM----------------------------|
  +H.       E E    E   E E  E  E  E  S  S  E
|---------------|----------------------------|
|---------------|----------------------------|
|---------------|-------------------------11-|
|-(9)-----------|--------9-10-12-10-12-14----|
|----------10-9-|-10--12---------------------|
|---------------|----------------------------|
|
|  H.       q      H.                q
|---------------|----------------------------|
|---------------|----------------------------|
|--0--------0---|--2-----------------2-------|
|--2--------2---|--2-----------------2-------|
|--2--------2---|--2-----------------2-------|
|--0--------0---|--0-----------------0-------|
|
|  W               W
|---------------|----------------------------|
|---------------|----------------------------|
|--0------------|--2-------------------------|
|--2------------|-(2)------------------------|
|---------------|----------------------------|
|--0------------|-(0)------------------------|


  Em                                      Esus4
                                                            ~~~~~~~~
   |--3---|
   E   E  E  E  E  E  E  +E      +E     a  E     +E   +E   +E   +Q     E  E
|-----------------12-14-(14)b15r(14)-|-12--------------------------------15--|
|--------12-13-15--------------------|----15b17-(15)-(15)-(15)-(15)--/17-----|
|-12--14-----------------------------|---------------------------------------|
|------------------------------------|---------------------------------------|
|------------------------------------|---------------------------------------|
|------------------------------------|---------------------------------------|
|
|  H.                     q                W
|------------------------------------|---------------------------------------|
|------------------------------------|---------------------------------------|
|--0----------------------0----------|-----2---------------------------------|
|--2----------------------2----------|-----2---------------------------------|
|--2----------------------2----------|-----2---------------------------------|
|--0----------------------0----------|-----0---------------------------------|
|
|  W                                       W
|------------------------------------|---------------------------------------|
|------------------------------------|---------------------------------------|
|--0---------------------------------|-----2---------------------------------|
|-(2)--------------------------------|----(2)--------------------------------|
|------------------------------------|---------------------------------------|
|-(0)--------------------------------|----(0)--------------------------------|


  E+sus2/C                    Dadd11/C
   ~~~~~~~~~~~                 ~~~~~~~~~~~
   H      +E   E     +E   E    H      +E   E     +E   E
|-19-----(19)-19b20-(19)-19-|-17-----(17)-17b19-(17)-17-|
|---------------------------|---------------------------|
|---------------------------|---------------------------|
|---------------------------|---------------------------|
|---------------------------|---------------------------|
|---------------------------|---------------------------|
|
|  H.                 q        H.                 q
|---------------------------|---------------------------|
|--5------------------5-----|--7------------------7-----|
|--5------------------5-----|--7------------------7-----|
|--4------------------4-----|--5------------------5-----|
|--3------------------3-----|--3------------------3-----|
|---------------------------|---------------------------|
|
|  W                           W
|---------------------------|---------------------------|
|---------------------------|--3------------------------|
|--5------------------------|---------------------------|
|---------------------------|---------------------------|
|--3------------------------|-(3)-----------------------|
|---------------------------|---------------------------|


  E+sus2/C                   Dadd11/C
   ~~~~~~~~~~~                ~~~~~~~~~~~
   H      +E    E   +E   E    H      +E   E  +E   E
|-15-----(15)-[17]-(17)-15-|-14-----(14)------------|
|--------------------------|-------------15-(15)----|
|--------------------------|---------------------14-|
|--------------------------|------------------------|
|--------------------------|------------------------|
|--------------------------|------------------------|
|
|  H.                q        W
|--------------------------|------------------------|
|--5-----------------5-----|--7---------------------|
|--5-----------------5-----|--7---------------------|
|--4-----------------4-----|--5---------------------|
|--3-----------------3-----|--3---------------------|
|--------------------------|------------------------|
|
|  W                          W
|--------------------------|------------------------|
|--------------------------|--3---------------------|
|--5-----------------------|------------------------|
|--------------------------|------------------------|
|-(3)----------------------|-(3)--------------------|
|--------------------------|------------------------|


     Em               Esus4
      ~~~
   a  H.       E  E    E   E  E  E  E  E  E  E
|-------------------|--------------------------|
|-------------------|--------------------------|
|-14h16-------------|--------------------------|
|-------------16-17-|-----16-------------------|
|-------------------|-19-----17-19-15-17----15-|
|-------------------|--------------------19----|
|
|     H.       q       H.                 q
|-------------------|--------------------------|
|-------------------|--------------------------|
|-----0--------0----|--2------------------2----|
|-----2--------2----|--2------------------2----|
|-----2--------2----|--2------------------2----|
|-----0--------0----|--0------------------0----|
|
|     W                W
|-------------------|--------------------------|
|-------------------|--------------------------|
|-----0-------------|--2-----------------------|
|-----2-------------|-(2)----------------------|
|-------------------|--------------------------|
|-----0-------------|-(0)----------------------|


  Em                                 Esus4
                                      ~~~
                           |--3--|
   E   E  E  E  E  E  +E   S  S  S    W
|----------------------------------|--------|
|----------------------------------|--------|
|----------------------------------|--------|
|----------------------------------|--------|
|----------------------------------|--------|
|-17--19-15-17-14-15-(15)-14h15p14-|-12-----|
|
|  H.                  q              W
|----------------------------------|--------|
|----------------------------------|--------|
|--0-------------------0-----------|--2-----|
|--2-------------------2-----------|--2-----|
|--2-------------------2-----------|--2-----|
|--0-------------------0-----------|--0-----|
|
|  W                                  W
|----------------------------------|--------|
|----------------------------------|--------|
|--0-------------------------------|--2-----|
|-(2)------------------------------|-(2)----|
|----------------------------------|--------|
|-(0)------------------------------|-(0)----|


  E5 F#5       A5  G5        E5    F#5       B5    Bb5
  Gtr I
                ~~~~~~~~~~~~~~~~~~~~~~~~~~~~~~~~~~
  W             W             +W              +W
|------------|-------------|---------------|-------------|
|------------|-------------|---------------|-------------|
|------------|-------------|---------------|-------------|
|------------|-------------|---------------|-------------|
|------------|-------------|---------------|-------------|
|-2s=========|=14----------|-(14)----------|-(14)--------|
|
| Gtr II
| Q  H.         Q  H.          Q   H.          Q   H.
|------------|-------------|---------------|-------------|
|------------|-------------|---------------|-------------|
|------------|-------------|---------------|-------------|
|------------|-------------|---------------|-------------|
|-2--4-------|--7--5-------|---2---4-------|---9---8-----|
|-0--2-------|--5--3-------|---0---2-------|---7---6-----|


  E5    F#5       A5    G5        E5    F#5       B5    C5
    ~~~~~~~~~~~~~~~~~~~~~~~~~~~~~~~~~~~~~~~~~~~~~~~~~~~
    W              +W               W              +W
|---------------|---------------|-(14)----------|-(14)---------------|
|---------------|---------------|---------------|--------------------|
|---------------|---------------|---------------|--------------------|
|-(16)----------|-(16)----------|-(16)----------|-(16)---------------|
|---------------|---------------|---------------|--------------------|
|-(14)----------|-(14)----------|-(14)----------|-(14)---------------|
|
|   Q   H.          Q   H.          Q   H.          Q    H     +Q
|---------------|---------------|---------------|--------------------|
|---------------|---------------|---------------|--------------------|
|---------------|---------------|---------------|--------------------|
|---------------|---------------|---------------|--------------------|
|---2---4-------|---7---5-------|---2---4-------|---9---10----(10)\--|
|---0---2-------|---5---3-------|---0---2-------|---7----8-----(8)\--|


   Verse
    E5 F#5       A5 G5        E5 F#5       B5 Bb5
    Gtrs I, II
    Q  H.        Q  H.        Q  H.        Q  H.
||-------------|------------|------------|----------|
||o------------|------------|------------|----------|
||-------------|------------|------------|----------|
||-------------|------------|------------|----------|
||o-2--4-------|-7--5-------|-2--4-------|-9--8-----|
||--0--2-------|-5--3-------|-0--2-------|-7--6-----|


  E5 F#5       A5 G5        E5 F#5       B5 C5
  Q  H.        Q  H.        Q  H.        Q   H.
|------------|------------|------------|------------||
|------------|------------|------------|-----------o||
|------------|------------|------------|------------||
|------------|------------|------------|------------||
|-2--4-------|-7--5-------|-2--4-------|-9--10-----o||
|-0--2-------|-5--3-------|-0--2-------|-7---8------||


   Chorus
    N.C.                                                 F#5 F5
    PM----------------------------------------------|
    S S S S S S S S S S S S S S S S   S S S S S S S S  a  Q   Q
||----------------------------------|----------------------------|
||o---------------------------------|----------------------------|
||----------------------------------|-----------------10s11--10--|
||----------------------------------|-----------------10s11--10--|
||o---------------------------------|------------------8s=9---8--|
||--0-0-0-0-0-0-0-0-0-0-0-0-0-0-0-0-|-0-0-0-0-0-0-0-0------------|


  N.C.                                              F5
  PM----------------------------------------------|
  S S S S S S S S S S S S S S S S   S S S S S S S S  Q   +Q     4x
|---------------------------------|-----------------------------||
|---------------------------------|----------------------------o||
|---------------------------------|-----------------10--(10)\---||
|---------------------------------|-----------------10--(10)\---||
|---------------------------------|------------------8---(8)\--o||
|-0-0-0-0-0-0-0-0-0-0-0-0-0-0-0-0-|-0-0-0-0-0-0-0-0-------------||


   Interlude
    N.C.
      PM|   PM|   PM    PM|   PM|   PM
    E E E E E E E E   E E E E E E E E  5x
||------------------|------------------||
||o-----------------|-----------------o||
||------------------|------------------||
||------------------|------------------||
||o-6-----6-----5---|-6-----6-----4---o||
||----5-2---5-2---4-|---5-2---5-2---3--||


 Outro (Bridge)
  N.C.
  Gtr I
  E E E E E E E E   E E E E E  E  E E   +Q    H.
|-----------------|-------------------|-------------*|
|-----------------|-------------------|-------------*|
|-----------------|-------------------|-------------*|
|-5-4---6-5---7-6-|-8-7---9-8----10-9-|-(9)\--------*|
|-----6-----7-----|-----9-----10------|-------------*|
|-----------------|-------------------|-------------*|
|
| Gtr II
| E E E E E E E E   E E E E E  E  E E   +Q    H.
|-----------------|-------------------|-------------*|
|-----------------|-------------------|-------------*|
|-----------------|-------------------|-------------*|
|-----------------|-------------------|-------------*|
|-3-2---4-3---5-4-|-6-5---7-6-----8-7-|-(7)\--------*|
|-----4-----5-----|-----7------8------|-------------*|



Duration Legend
---------------
W - whole; H - half; Q - quarter; E - 8th; S - 16th; T - 32nd; X - 64th; a - acciaccatura
+ - note tied to previous; . - note dotted; .. - note double dotted
Uncapitalized letters represent notes that are staccato (1/2 duration)
Irregular groupings are notated above the duration line
Duration letters will always appear directly above the note/fret number it represents the
duration for.  Duration letters with no fret number below them represent rests.  Multi-
bar rests are notated in the form Wxn, where n is the number of bars to rest for.  Low
melody durations appear below the staff

Tablature Legend
----------------
 h   - hammer-on
 p   - pull-off
 b   - bend
 pb  - pre-bend
 r   - bend release (if no number after the r, then release immediately)
 /\  - slide into or out of (from/to "nowhere")
 s   - legato slide
 S   - shift slide
<n> - natural harmonic
[n]  - artificial harmonic
n(n) - tapped harmonic
 ~   - vibrato
 tr  - trill
 T   - tap
 TP  - trem. picking
 PM  - palm muting
\n/  - tremolo bar dip; n = amount to dip
 \n  - tremolo bar down
 n/  - tremolo bar up
/n\  - tremolo bar inverted dip
 =   - hold bend; also acts as connecting device for hammers/pulls
 <> - volume swell (louder/softer)
 x   - on rhythm slash represents muted slash
 o   - on rhythm slash represents single note slash

Misc Legend
-----------
 |  - bar
||  - double bar
||o - repeat start
o|| - repeat end
*|  - double bar (ending)
 :  - bar (freetime)
 $  - Segno
 &  - Coda
Tempo markers - <E/E./Q/Q./H/H.> = BPM(8/16=s8/s16), where s8 = swing 8ths, s16 = swing 16ths

comments
We did not receive enough feedback on this tab! Please rate:
print report bad tab
1 2 3 4 5
I want to post or [tab]
guest
You may want to rate the tab now too:
select rating
Please do not post tabs as comments. Select "correction" instead!