Oops, an error
Loading. Please wait.

In Your Eyes Tab

ver1
ver1

Intro

Whole song

More versions @911Tabs.com
16,564 views 3 this week
1 commentread comment
1 2 3 4 5
worth learning
x 5
Autoscroll
+/-
esc
set tempo
stop
WARNING: You are trying to view
                                    content from Ultimate-Guitar.com
                                    in an unauthorized application,
                                    which is prohibited.

                                    Please use an official Ultimate
                                    Guitar Tabs application for iPhone,
                                    iPad or Android to access legitimate
                                    chords, guitar, bass, and drum tabs
                                    from Ultimate-Guitar.com database.

                                    Type "ultimate guitar tabs" in Apple
                                    App Store's or Android Market's
                                    search to find the application.
#----------------------------------PLEASE NOTE---------------------------------#
#This file is the author's own work and represents their interpretation of the #
#song. You may only use this file for private study, scholarship, or research. #
#------------------------------------------------------------------------------##
From: rclements@aol.com (RClements)
Date: 18 Aug 1995 12:43:45 -0400
Subject: TAB: In Your Eyes (detailed)

In Your Eyes
============
by Peter Gabriel, from the 'So' album


This beautiful song from the 1986 'So' album is a classic.  I have not
been able to find good sheet music for a guitar version of the tune, so
I did it myself. These simplified chords are not the ones David
Sanctious (Peter's keyboard player; sp?) plays, but they sound good
solo and with the record. Your comments, flames, etc. are invited. This
is my first TAB post so be kind :)

>>>>>>>>>>>>>>>>>>>>>>>>>>>>>>>>>>>>o<<<<<<<<<<<<<<<<<<<<<<<<<<<<<<<<<<<<<
<<<
Performace notes: Play with your fingers if you can; it makes the
arpeggios easier. Obviously, listen to the recorded version. The rythms
are fairly simple but some of the chord positions are, um, original.

The verses are best understood in phrases that last 8 counts as follows:

          E A D G B e
chord 1     5 4 4 3        lasts 3 counts              
chord 2     0 2 2 3        lasts 1 count
chord 3     2 0 0 3        lasts 3 counts
chord 4     0 x x 0 0      lasts 1 count

..repeat until chorus


Note: The intro is same as the verses but the very first bar omits chord
1.


======
Chorus :
======

The chorus has two melodic sections, a high one and a lower one which are 
separated by a bridge.

First section (A major chord):
-----------------------------
Comes in with the lyrics "All my instincts.. they return..."  etc.



             pattern 1a:                           pattern 1b:

     2nd finger bars 14th fret...         1st finger on 12th, 2nd bars G&B
 e|------------------------------------|----------------------------------
--|
 B|------14-15-14---------15-14---14---|------14-15-14---------15-14---14-
--|
 G|----14---------14---14------14---14-|----14---------14---14------14---1
4-|   
 D|--14-------------14-----------------|--12-------------12---------------
--|   
 A|------------------------------------|----------------------------------
--| 
 E|------------------------------------|----------------------------------
--|

    (repeats serveral times)

    Note to the digitally adventuresome: Patterns 1a & b can be played
with some    
    diffculty  on the 9th & 10th frets using the high e string, but I
fould it 
    awkward to make pattern 1b work there. 


Bridge:
  vocals are the swelling "oooooooo--woh-woh" phrases

    e|--------------------|
    B|--------------------|  (repeat 3-4x)
    G|--7--6--5-----------|
    D|--7--7--7-----------|   recommend anchoring 3rd finger on 7th fret 
    A|--0--0--0-----------|
    E|--------------------|


Second (main) section of chorus (E major chord):

      (vocals are "In your eyes... the light... the heat..." etc.)


             pattern 2a:                           pattern 2b:

     2nd finger bars 14th fret...         1st finger on 12th, 2nd bars G&B
 e|------------------------------------|----------------------------------
--|
 B|-------9-10--9---------10--9----9---|-------9-10--9---------10--9----9-
--|
 G|-----9----------9----9-------9----9-|-----9----------9----9-------9----
9-|   
 D|---9--------------9-----------------|---7--------------7---------------
--|   
 A|------------------------------------|----------------------------------
--| 
 E|------------------------------------|----------------------------------
--|

  (repeats serveral times)

That's pretty much the whole song  :-)

Other Versions
 ===============

Serveral Live versions of the song have an added
interlude during the 2nd part of the chorus where it gets quiet and
Peter does a vocal that goes (approx)  "Accepting all I've done and
said/ I want to stand and stare again/ till there's nothing left out/
wo-wo-wo/ it remains there in your eyes/whatever comes and goes/wo-oh
its in your eyes"  -> back to second part of chorus w/ full band. There
seem to be two quiet chords that alternate for this section as
follows:

(basically pattern 2 with added E on A string, 1st finger suggested.

         E A D G  B  e
chord 1    7 9 9  9          lasts 8 counts              
chord 2    7 7 9 10          lasts 8 counts

I have also heard this interlude used as an extended into/outro on the
recent live album recorded on the 'US' tour (Paula Cole singing backup.
She's great!)

==========================================================================



From: Scott A. Yanoff 



Peter Gabriel  "In Your Eyes"

Chords used:

Capo 7th fret:

Verses: (These 4 repeat throughout:)

 x 9 9 0 10 0
 x 9 0 0 10 0
10 9 0 0 10 0
10 9 0 0 10 0


Where x means muted string and 0 means open string, and the #'s correspond
to fret #'s.

TAB:  (used during: ("All my instincts may return....")

 (A chord formation)       (D chord formation)
-----------------------|--------10-9------10-9-------------------------------
-----10-9------10-9----|----10--------10-------------------------------------
--9---------9----------|---9---------9---------------------------------------
-9---------9-----------|-----------------------------------------------------
-----------------------|-----------------------------------------------------
-----------------------|-----------------------------------------------------

1 comment total.
0 reply
IanvomSaal wrote on May 25 2002, 12:00 am

when one clicks on-to a song, they want to be able to pick up a guitar & play the song quickly, & have it sound like the song (ie:chords & lyrics & all) you cannot with this sub.

I want to post or [tab]
guest
You may want to rate the tab now too:
select rating
Please do not post tabs as comments. Select "correction" instead!