Oops, an error
Loading. Please wait.

Rock Set Tab

1,043 views 1 this week
no commentswrite comment
1 2 3 4 5
please rate
Autoscroll
+/-
esc
set tempo
stop
Contributor
NEW! There's an official Ultimate Guitar app which is ideal
for learning songs when you're away from computer. Get the app
WARNING: You are trying to view
                                    content from Ultimate-Guitar.com
                                    in an unauthorized application,
                                    which is prohibited.

                                    Please use an official Ultimate
                                    Guitar Tabs application for iPhone,
                                    iPad or Android to access legitimate
                                    chords, guitar, bass, and drum tabs
                                    from Ultimate-Guitar.com database.

                                    Type "ultimate guitar tabs" in Apple
                                    App Store's or Android Market's
                                    search to find the application.
PTL


			     Petra – Rock set
                                From Farewell

Tabbed by: Sanjeev George and Thomas George
Email:SanjeevGeorge123@yahoo.co.in

Tuning:1/2 step down
	

SIGHT UNSEEN

e|-----------------------------------------------------|
B|--------------------------6p5------------------------|
G|-----------------5h7p5--------7p5--------------------|
D|-0~--------------------0----------5\3-3---0----------|
A|-0~--------------------------------------------------|
E|-----------------------------------------------------|

e|-----------------------------------------------------------------------|
B|-----------------------------------------------------------------------|
G|--7---10---12v-------5\4/7v--------------------------------------------|
D|--7---10---12v-------5\4/7v---------3-------5--------5-5--7------------|
A|--5---------------------------------3-------5--------3-3--5--/-\-------|
E|------------------------------------1--0000-3--0000--------------------|
                                         ....    ....

e|-----------------------------------------------------------------------|
B|-----------------------------------------------------------------------|
G|--7---10---12v-------5\4/7v--------------------------------------------|
D|--7---10---12v-------5\4/7v---------3-------5--------5-5--7------------|
A|--5---------------------------------3-------5--------3-3--5------------|
E|------------------------------------1--0000-3--0000--------------------|
                                         ....    ....


e|----------------------------------------------------------------|
B|----------------------------------------------------------------|
G|----------------------------------------------------------------|
D|-3-3----3-3----1-1--3-3-------------------------8-8-------------|
A|-3-3----3-3----1-1--3-3-----3-3------3-3--------6-6--8-8~-------|
E|-1-1----1-1---------1-1-----1-1-1111-1-1-1111--------6-6~-------|
                                  ....     ....

e|---------------------------------------------------------------|
B|---------------------------------------------------------------|
G|---------------------------------------------------------------|
D|-3-3----3-3----1-1--3-3-------------------------8-8------------|
A|-3-3----3-3----1-1--3-3-----3-3------3-3--------6-6--8-8~------|
E|-1-1----1-1---------1-1-----1-1-1111-1-1-1111--------6-6~------|
                                  ....     ....

e|---------------------------------------------------------------|
B|---------------------------------------------------------------|
G|---------------------------------------------------------------|
D|-1-1-0-1-0-------3~3~------1-1-0-1-0--------------777777-------|
A|-----------3-1-0-3-3~----------------3-1-0--5-5---777777-------|
E|-----------------1-1~-----------------------3-3---555555-------|
Maybe if I could see…

e|-----------------------------------------------------------------------|
B|-----------------------------------------------------------------------|
G|--7---10---12v-------5\4/7v--------------------------------------------|
D|--7---10---12v-------5\4/7v---------3-------5--------5-5--7------------|
A|--5---------------------------------3-------5--------3-3--5------------|
E|------------------------------------1--0000-3--0000--------------------|
                                         ....    ....
     Sight unseen, sight unseen

e|-----------------------------------------------------------------------|
B|-----------------------------------------------------------------------|
G|--7---10---12v-------5\4/7v--------------------------------------------|
D|--7---10---12v-------5\4/7v---------3-------5--------5-5--7------------|
A|--5---------------------------------3-------5--------3-3--5------------|
E|------------------------------------1--0000-3--0000--------------------|
                                         ....    ....
     Sight unseen, sight unseen

e|--------------------------------------------|
B|--------------------------------------------|
G|-----------------------10-------------------|
D|-3------5------6-------10-------------------|
A|-1-111--3-333--4-444---8--------------------|
E|--------------------------------------------|
     ...    ...    ...

e|------------------------------------------------------------------|
B|------------------------------------------------------------------|
G|--7---10---12v-------5\4/7v-----------------------0-----0---------|
D|--7---10---12v-------5\4/7v------0-0--3-2-0-----0-----0-------0---|
A|----------------------------------------------3---------------0---|
E|----------------------------------------------------3-----1-------|


IT IS FINISHED

e|---------------------------------------------------------------------------|
B|---------------------------------------------------------------------------|
G|---------------------------------------------------------------------------|
D|---0-000-000-0000-0-000-000-0000-0-000-000-0000-0-000-000-0000-0-2-3-2-0---|
A|---0-000-000-0000-0-000-000-0000-0-000-000-0000-0-000-000-0000-------------|
E|---------------------------------------------------------------------------|
     . ... ... .... . ... ... .... . ... ... .... . ... ... ....

e|---------------------------------------------------------------------------|
B|---------------------------------------------------------------------------|
G|---------------------------------------------------------------------------|
D|--0-000-000-000-0--------------------------------------0~---0-2-3-2-0------|
A|--0-000-000-000-0-5-555-555-555-5-5-555-5-7-777-7-8-10-0~------------------|
E|------------------3-333-333-333-3-3-333-3-5-555-5-6--8---------------------|
      ... ... ... .   ... ... ...     ...     ... 

e|---------------------------------------------------------------|
B|---------------------------------------------------------------|
G|---------------------------------------------------------------|
D|--0-000-000-000-0--------------------------------------0-------|
A|--0-000-000-000-0-5-555-555-555-5-5-555-5-7-777-7-8-10-0-------|
E|------------------3-333-333-333-3-3-333-3-5-555-5-6--8---------|
      ... ... ... .   ... ... ...     ...     ... 

e|---------------------------------------------------|
B|---------------------------------------------------|
G|---------------------------------------------------|
D|---0-00-0-00-0-00-0-00-0-00-0-00-0-00-0-0-2-3-2-0--|
A|---0-00-0-00-0-00-0-00-0-00-0-00-0-00-0-------------|
E|----------------------------------------------------|
       ..   ..   ..   ..   ..   ..   .. 

e|----------------------------------------------------------|
B|----------------------------------------------------------|
G|----------------------------------------------------------|
D|--0-00-0-00-0-00-0-00-0-00-0-0-00-0-00-0-00---------0-----|
A|--0-00-0-00-0-00-0-00-0-00-0-0-00-0-00-0-00--8-10---0-----|
E|---------------------------------------------6-8----------|
      ..   ..   ..   ..   ..     ..   ..   ..

e|------------------------------------------------------------|
B|------------------------------------------------------------|
G|------------------------------------------------------------|
D|--0-00-0-00-0-00-0-00-0-00-0-0-00-0-00-0-00---------0-------|
A|--0-00-0-00-0-00-0-00-0-00-0-0-00-0-00-0-00--8-10---0-------|
E|---------------------------------------------6-8------------|
      ..   ..   ..   ..   ..     ..   ..   ..

e|---------------------------------------|
B|---------------------------------------|
G|---------------------------------------|
D|--7----7----7-----3---5---0~-----------|
A|--5-55-5-55-5-----1---3---0~-----------|
E|---------------------------------------|
      ..   .. 
   It is finished!

e|---------------------------------------|
B|---------------------------------------|
G|---------------------------------------|
D|--7----7----7-----3---5----------------|
A|--5-55-5-55-5-----1---3---7~-----------|
E|--------------------------5~-----------|
      ..   .. 

e|---------------------------------------------------|
B|---------------------------------------------------|
G|---------------------------------------------------|
D|--8---3---5---0---2-3---5---7----7----7-----0~-----|
A|--8---3---5---0---2-3---5---7----7----7-----0~-----|
E|--6---1---3-------0-1---3---5-55-5-55-5------------|
                                              It is finished!!!


THINK TWICE!

With wah pedal

e|--------------------------------------------------|
B|-1h3-3-3p1-0--------------1h3-3-3p1-0-------------|
G|-------------2-0----------------------0---0-------|keep playin till the 
D|-----------------4-0---0----------------3---------| chorus
A|---------------------3----------------------------|
E|--------------------------------------------------|

e|-------------------------------------------------------|
B|-------------------------------------------------------|
G|-------------------------------------------------------|
D|-3333--5555----------------3333--5555--55555555--------|
A|-1111--3333--3333—-5555----1111--3333--33333333--------|
E|-------------1111--3333--------------------------------|

e|--------------------------------------------------------------------------|
B|--------------------------------------------------------------------------|
G|--------------------------------------77777777777777777-------------------|
D|-3333--5555---------------------------55555555555555555-------------------|
A|-1111--3333--3333--5555----1111-3333--55555555555555555-------------------|
E|-------------1111--3333---------------------------------------------------|


I AM ON THE ROCK!!

e|----------------------------------------------------------|
B|----------------------------------------------------------|
G|----------------------------------------------------------|
D|-2p0-------------------------------5----------------------|
A|-----2p0----------4-0-5-0-7—-7p5-7---7---5----------------|
E|---------3v--0-0-----------------------7---4-0-5-0-7-5v---|


e|---------------------------------------------------------------------|
B|---------------------------------------------------------------------|
G|--------------------------------------------------------------------|
D|-2p0------------------------------5----------------------------------|
A|-----2p0----------4-0-5-0-7—7p5-7---7-5------------------------------|
E|---------3v--0-0------------------------4-0-5-0-7-0-5-0-4-0-5-6-7v---|

e|---------------------------------------|
B|---------------------------------------|
G|---------------------------------------|
D|---------------5-4---------------------|
A|-3p0---0----77-----5-4-3-0-0-----------|
E|-----3---0--55-------------------------|

e|---------------------------------------|
B|---------------------------------------|
G|---------------------------------------|
D|---------------5-4---------------------|
A|-3p0---0----77-----5-4-3v--------------|
E|-----3---0--55-------------------------|


e|-----------------------------------|
B|-----------------------------------|
G|-----------------------------------|
D|-2p0-------------------------------|
A|-----2p0--------4-0-5-0-7----------|
E|---------3--0-0--------------------|

e|-----------------------------------|
B|-----------------------------------|
G|-----------------------------------|
D|-2p0-------------------------------|
A|-----2p0--------4-0-5-0-7----------|
E|---------3--0-0--------------------|


e|----------------------------------------------------------|
B|----------------------------------------------------------|
G|----------------------------------------------------------|
D|-2p0-------------------------------5----------------------|
A|-----2p0----------4-0-5-0-7—-7p5-7---7---5----------------|
E|---------3v--0-0-----------------------7---4-0-5-0-7-5v---|

e|---------------------------------------------------------------------|
B|---------------------------------------------------------------------|
G|--------------------------------------------------------------------|
D|-2p0------------------------------5----------------------------------|
A|-----2p0----------4-0-5-0-7—7p5-7---7-5------------------------------|
E|---------3v--0-0------------------------4-0-5-0-7-0-5-0-4-0-5-6-7v---|

e|---------------------------------------|
B|---------------------------------------|
G|---------------------------------------|
D|---------------5-4---------------------|
A|-3p0---0----77-----5-4-3-0-0-----------|
E|-----3---0--55-------------------------|

e|---------------------------------------------------------------------------|
B|---------------------------------------------------------------------------|
G|---------------------------------------------------------------------------|
D|-7-6-7-6-7-9-7-6--7-6-7-6-7-9-7-6--7-6-7-6-7-6-7-9-7-6---7-6-7-6-7-9-7-6---|
A|---------------------------------------------------------------------------|
E|---------------------------------------------------------------------------|
     Hey!!!!          Hey!!!!               Are you ready..yeah!!!!!!!!!!!

e|---------------------------------------------------------------------------|
B|---------------------------------------------------------------------------|
G|---------------------------------------------------------------------------|
D|--77-----------------------------------------------------------------------|
A|--55--55--77--77----99--99--55--77-77--------------------------------------|
E|------33--55--55----77--77--33--55-55--------------------------------------|

e|---------------------------------------------------------------------------|
B|---------------------------------------------------------------------------|
G|---------------------------------------------------------------------------|
D|--77-----------------------------------------------------------------------|
A|--55--55--77--77----99--99--55--77-77--------------------------------------|
E|------33--55--55----77--77--33--55-55--------------------------------------|

e|-----0----------------------------------------------------------------------|
B|-----0----------------------------------------------------------------------|
G|-----0----------------------------------------------------------------------|
D|-----5-----7-------------------77------------------------------------------|
A|-555-5--7--5--5----5--7—-9~----55--55--77777777----------------------------|
E|-333-3--5-----3----3--5—-7~--------33--55555555----------------------------|
                                 Coz I am on the Rock!!

MIDNIGHT OIL

e|-------------------------------------|
B|-------------------------------------|
G|---5/4---2------0-2-5-0h2------------|
D|---5/4---2------0-2-5-0h2------------|
A|-0-----0----0-0----------------------|
E|-------------------------------------|
                F f f 

e|-------------------------------------|
B|-------------------------------------|
G|---5/4---2------0-2-5-0h2------------|
D|---5/4---2------0-2-5-0h2------------|
A|-0-----0----0-0----------------------|
E|-------------------------------------|
                F f f 

e|-------------------------------------|
B|-------------------------------------|
G|---5/4---2------0-2-5-0h2------------|
D|---5/4---2------0-2-5-0h2------------|
A|-0-----0----0-0----------------------|
E|-------------------------------------|
                F f f 

e|-------------------------------------|
B|-----------------8888----------------|
G|---5/4---2-----7-7777----------------|
D|---5/4---2-----7-5555----------------|
A|-0-----0-----------------------------|
E|-------------------------------------|



e|-----------------------------------------------------------------|
B|------------------------------------------------------8888-------|
G|---5/4---2-------0---2---5---0h2------5/4---2-------7-7777-------|
D|---5/4---2-------0---2---5---0h2------5/4---2-------7-5555-------|
A|-0-----0---0-0-0---0---0---0--------0-----0---0-0-0--------------|
E|-----------------------------------------------------------------|
             . . .   .   .   .                  . . .    

e|-----------------------------------------------------------------|
B|------------------------------------------------------8888-------|
G|---5/4---2-------0---2---5---0h2------5/4---2-------7-7777-------|
D|---5/4---2-------0---2---5---0h2------5/4---2-------7-5555-------|
A|-0-----0---0-0-0---0---0---0--------0-----0---0-0-0--------------|
E|-----------------------------------------------------------------|
             . . .   .   .   .                  . . .    


e|-----------------------------------------------------------------|
B|------------------------------------------------------8888-------|
G|---5/4---2-------0---2---5---0h2------5/4---2-------7-7777-------|
D|---5/4---2-------0---2---5---0h2------5/4---2-------7-5555-------|
A|-0-----0---0-0-0---0---0---0--------0-----0---0-0-0--------------|
E|-----------------------------------------------------------------|
             . . .   .   .   .                  . . .    

e|-----------------------------------------------------------------|
B|------------------------------------------------------8888-------|
G|---5/4---2-------0---2---5---0h2------5/4---2-------7-7777-------|
D|---5/4---2-------0---2---5---0h2------5/4---2-------7-5555-------|
A|-0-----0---0-0-0---0---0---0--------0-----0---0-0-0--------------|
E|-----------------------------------------------------------------|
             . . .   .   .   .                  . . .    


e|--------------------------------|
B|--------------------------------|
G|-------5~-----------------------|
D|--3~---5~---3~------------------|
A|--3~---3~---3~------------------|
E|--1~--------1~---5-3-3----------|

                   Bridegroom comes…

e|----33--2-0--------------------------33--2-0----------------------------|
B|----33--3-0--------------------------33--2-0----------------------------|
G|----------------------------------------------2h4p2---------------------|
D|-------------0h2p0----------------------------------2p0-----------------|
A|-------------------2p0----------------------------------2p0------------|
E|-00--------------------5-3-2-0----00------------------------3p0--------|

e|----33--2-0--------------------------33--2-0---------------------------|
B|----33--3-0--------------------------33--2-0---------------------------|
G|----------------------------------------------2h4p2--------------------|
D|-------------0h2p0----------------------------------2p0----------------|
A|-------------------2p0----------------------------------2p0------------|
E|-00--------------------5-3-2-0----00------------------------3p0--------|


MINE FIELD

e|------------------------------------------|
B|------------------------------------------|
G|---22-0h2--5-4v-----22---7\3--5-----------|
D|---22—0h2--5-4v-----22---7\3--5-----------|
A|-0----------------0-----------------------|
E|------------------------------------------|

e|------------------------------------------|
B|------------------------------------------|
G|---22-0h2--5-4v-----22---7\3--5-----------|
D|---22—0h2--5-4v-----22---7\3--5-----------|
A|-0----------------0-----------------------|
E|------------------------------------------|

e|-----------------------------------------------------|
B|-----------------------------------------------------|
G|-----------------------------------------------------|
D|--77--77--10-10--xx-55----77--77--55-----------------|
A|--77--77--10-10--xx-55----55--55--33-xx-55-----------|
E|--55--55—-8--8---xx-33---------------xx-33-----------|

e|-----------------------------------------------------|
B|-----------------------------------------------------|
G|-----------------------------------------------------|
D|--77--77--10-10--xx-55----7--7--5---2-2~-------------|
A|--77--77--10-10--xx-55----5--5--3-x-2-2~-------------|
E|--55--55—-8--8---xx-33------------x-0-0~-------------|

e|---------------------------------------------------------------------------|
B|---------------------------------------------------------------------------|
G|---------------------5------7------------------------7---9-----------------|
D|-----3-------3-------5------7--------3-------3-------7---9~----------------|
A|-----3-------3---3-3-3--5-5-5--------3-------3---5-5-5---7~----------------|
E|-1-1-1---1-1-1-------------------1-1-1---1-1-1-----------------------------|
   . .     . .     . .    . .      . .     . .     . .

e|------3-------------------------------------------------------------------|
B|------3-------------------------------------------------------------------|
G|------3------------3-----3-----5------10-10-10----88----------------------|
D|--5---5-----3------3-----3-----5------10-10-10----88--888—-3~-------------|
A|--5---5-----3------1-1-1-1-1---3-3-3---8-8--8-----66--888—-3~-------------|
E|--3---3-----1-1-1-------------------------------------666—-1~-------------|
                . .    . .   .     . .   
   It’s a mine field!!!...


e|------3-------------------------------------------------------------------|
B|------3-------------------------------------------------------------------|
G|------3------------3-----3-----5-------8-------8-----3--------------------|
D|--5---5-----3------3-----3-----5-------8-------8-----3-------3-----3------|
A|--5---5-----3------1-1-1-1-1---3-3-3---6-6-6---6-6---1-1-1---3-----3------|
E|--3---3-----1-1-1--------------------------------------------1-1-1-1-1----|
                . .    . .   .     . .     . .     .     . .     . .   .

  
e|------------------------------------------------------------------------|
B|------------------------------------------------------------------------|
G|-----5-----------------8------------------------5~----------------------|
D|-----5---------6-------8---8~-----6~-----3~-----5~----------------------|
A|-3-3-3---------6---6-6-6---8~-----6~-----3~-----3~----------------------|
E|-----------4-4-4-----------6~-----4~-----1~-----------------------------|
   . .       . .     . .            



THIS MEANS WAR!!

e|---------------------------------------------------------------------------|
B|---------------------------------------------------------------------------|
G|----5----5----10----10----6----8----5--------------------------------------|
D|----5----5----10----10----6----8----5----5---------------------------------|
A|----3----3----8-----8-----4----6----3----2---------------------------------|
E|---------------------------------------------------------------------------|

e|---------------------------------------------------------------------------|
B|---------------------------------------------------------------------------|
G|----5----5----10----10----6----8----5--------------------------------------|
D|----5----5----10----10----6----8----5----5---------------------------------|
A|----3----3----8-----8-----4----6----3----2---------------------------------|
E|---------------------------------------------------------------------------|


e|------------------------------------------------------------------------|
B|--------4-4*------------------------------------------------------------|
G|------5-5-5*----------1-1*------6------8-8--------5---------------------|
D|----5---------------3-3-3*------6------8-8--------5-------5-------------|
A|--3---------------3-------------4------6-6--------3-------2-------------|
E|----------------1-------------------------------------------------------|

e|------------------------------------------------------------------------|
B|--------4-4*------------------------------------------------------------|
G|------5-5-5*----------1-1*------6------8-8--------5---------------------|
D|----5---------------3-3-3*------6------8-8--------5-------5-------------|
A|--3---------------3-------------4------6-6--------3-------2-------------|
E|----------------1------------------------------------------------------|

e|---------------------------------------------------------------------------|
B|---------------------------------------------------------------------------|
G|-------3---5-----7-8-----3------------5---7-8----8---3-3-------------------|
D|---5---3---5-----7-8-----3---3-3------5---7-8----8---3-3-------------------|
A|---5---1---3-----5-6-----1---3-3------3---5-6----6---1-1-------------------|
E|---3-------------------------1-1-------------------------------------------|
    This means war!!!!!!!

e|---------------------------------------------------------------------------|
B|---------------------------------------------------------------------------|
G|--8---7-8----7---10-10---------8-10----8-----------------------------------|
D|--8---7-8----7---10-10-----8---8-10----8----8-8---5-------55---5-----------|
A|--6---5-6----5---8--8------8---6-8-----6----8-8---5-------55---5-----------|
E|---------------------------6----------------6-6---3-33333-33-3-3-33333-----|
                                                      .....    .   .....
                                                     Endure……

e|----------------------|
B|----------------------|
G|------3---5-----------|
D|--5---3---5-----------|
A|--5---1---3-----------|
E|--3-------------------|
 This means war!

Solo
e|---------------------------------------------------------------------------|
B|---------------------------------------------------------------------------|
G|-5---5-7-8-7-5-8--7-8-7-5-7-5-4----8-7-5-8-7-7-5----5---5-7-8-7-5v---------|
D|---5----------------------------5----------------5----5--------------------|
A|---------------------------------------------------------------------------|
E|---------------------------------------------------------------------------|

e|---------------------------------------------------------------------------|
B|---------------8-----------------------------------------------------------|
G|-5---5-7-8-7-5----7-8-7-5-7-5-4----8-7-5-8-7-7-5----5---5-7-8-7-5----------|
D|---5----------------------------5----------------5----5-----------5--------|
A|---------------------------------------------------------------------------|
E|---------------------------------------------------------------------------|

e|-----------------------------------------|
B|-----------------------------------------|
G|----------3-3-x---5-5-x------------------|
D|--5-5-x---3-3-x---5-5-x--------0-1-0-----|
A|--5-5-x---1-1-x---3-3-x---2v-------------|
E|--3-3-x----------------------------------|


e|---------------------------------------------------------------------------|
B|---------------8-----------------------------------------------------------|
G|-5---5-7-8-7-5----7-8-7-5-7-5-4----8-7-5-8-7-7-5----5---5-7-8-7-5----------|
D|---5----------------------------5----------------5----5-----------5--------|
A|---------------------------------------------------------------------------|
E|---------------------------------------------------------------------------|

e|----------------------------------------|
B|----------------------------------------|
G|----------3-3-x-------------------------|
D|--5-5-x---3-3-x---5~---7~---------------|
A|--5-5-x---1-1-x---5~---7~---------------|
E|--3-3-x-----------3~---5~---------------|


IT IS FINISHED REPRISE
e|---------------------------------------|
B|---------------------------------------|
G|---------------------------------------|
D|--7----7----7-----3---5---0~-----------|
A|--5-55-5-55-5-----1---3---0~-----------|
E|---------------------------------------|
   It is finished!

e|---------------------------------------|
B|---------------------------------------|
G|---------------------------------------|
D|--7----7----7-----3---5----------------|
A|--5-55-5-55-5-----1---3---7~-----------|
E|--------------------------5~-----------|


e|---------------------------------------------------|
B|---------------------------------------------------|
G|---------------------------------------------------|
D|--8---3---5---0---2-3---5---7----7----7-----0~-----|
A|--8---3---5---0---2-3---5---7----7----7-----0~-----|
E|--6---1---3-------0-1---3---5-55-5-55-5------------|
                                              It is finished!!!


OUTRO
e|-----------------------------------------------------------|
B|-----------------------------------------------------------|
G|-----------------------------------------------------------|
D|--777777777777777777-7-77777777777--7-7777777777777--------|
A|--555555555555555555-5-55555555555--5-5555555555555--------|
E|-----------------------------------------------------------|
    .. . . . . . . . . . . . . . . .  . . . . . . . .  

e|----5-6---5-----5-6--8--5---------10-11-10----10--10------|
B|--------8---6-8------------8v--------------11-------------|
G|----------------------------------------------------------|
D|----------------------------------------------------------|
A|----------------------------------------------------------|
E|----------------------------------------------------------|

e|-------------------------------------------------------------6-5-----------|
B|---------------------------------------------------------8-7---------------|
G|---------------------5----------8-8---11--7-8~-------8-7-------------------|
D|--5-7-8-5-7---5-7-8-----7-5-----8-8---11--7-8~-----8-----------------------|
A|------------8-------------------6-6---9---5-6------------------------------|
E|---------------------------------------------------------------------------|

e|----1~-------------------|
B|----3~-------------------|
G|----1~-------------------|
D|-------------------------|
A|-------------------------|
E|-------------------------|

| /  slide up
| \  slide down
| h  hammer-on
| p  pull-off
| v  vibrato
| +  harmonic
| x  Mute note
| ~  let ring
| .  Palm Mute
| F  finger mute,i.e.,play and mute with fretting finger



Please rate and comment. Thank you all. God bless you
===============================================================================



comments
We did not receive enough feedback on this tab! Please rate:
print report bad tab
1 2 3 4 5
I want to post or [tab]
guest
You may want to rate the tab now too:
select rating
Please do not post tabs as comments. Select "correction" instead!