Oops, an error
Loading. Please wait.

Fortress Of Sand Tab

81 views 3 this week
no commentswrite comment
1 2 3 4 5
excellent!
x 2
Autoscroll
+/-
esc
set tempo
stop
Contributor
Difficulty
intermediate
Hey! There's an official Ultimate Guitar app which is ideal
for learning songs when you're away from computer. Get the app
WARNING: You are trying to view
                                    content from Ultimate-Guitar.com
                                    in an unauthorized application,
                                    which is prohibited.

                                    Please use an official Ultimate
                                    Guitar Tabs application for iPhone,
                                    iPad or Android to access legitimate
                                    chords, guitar, bass, and drum tabs
                                    from Ultimate-Guitar.com database.

                                    Type "ultimate guitar tabs" in Apple
                                    App Store's or Android Market's
                                    search to find the application.
                                          Artist - Phideaux
                                         *******************
                                       Song - Fortress of Sand
                                      *************************
                                         Album - Chupacabras
                                        *********************



Guitar 1 = Clean Delay Picking
Guitar 2 = Clean Delay Picking
Guitar 3 = Distorted Fuzz


Piano
****** 
Bm           G             Em
 You are the one said come over
Bm            G            Em
  You are the one said come on
         Bm           G      Em          A9
  Where a wave washes over a fortress of Sand
Bm
And is new
       G
All is known
       Em
All is you…


Guitar 1 - Clean Elec Picking - With Delay
*******************************************
01:12
 D      F#m      Bm       D         F#m           Bm             
[----2-|------2-|-------||-----0-2-|-----0-2-0---|----------------|
[---3--|-----2--|----2--||---2-----|-------------|----------2---0-|
[--2---|----2---|---4---||-2-------|---4-------4-|-----4----------|
[-0----|---4----|--4----||---------|-2-----------|---4------------|
[------|--4-----|-2-----||---------|-------------|-2--------------|
[------|-2------|-------||---------|-------------|----------------|

 D             F#m       Bm      D             F#m           Bm
[-------------|---------|------||-----0-2-0---|-----0-2-0---|---------|
[-------2-----|---------|------||---2-------2-|-------------|-------2-|
[-----2---2---|-------2-|----4-||-2-----------|---4-------4-|-----4---|
[---4-------4-|-----4---|---4--||-------------|-2-----------|---4-----|
[-5-----------|---4-----|--2---||-------------|-------------|-2-------|
[-------------|-2-------|-2----||-------------|-------------|---------|

01:54
 D       F#m      Bm          D           F#m         Bm
[-----2-|--------|------p-2-||---2-----2-|---2---5-2-|------p-2-|
[----2--|-----2--|-----3-2--||-3---3-2---|-2---2-----|-----3-2--|
[---2---|----2---|----4-----||-----------|-----------|----4-----|
[--4----|---4----|---4------||-----------|-----------|---4------|
[-5-----|--4-----|--2-------||-----------|-----------|--2-------|
[-------|-2------|-2--------||-----------|-----------|-2--------|

****************************************************************************
 Guitar 1
********** 
02:13         D           F#m           Bm
[------------|-----0-2-0-|-----0-2-0---|--------|
[------------|---2-------|-------------|------2-|
[------------|-2---------|---4-------4-|-----4--|
[------------|-----------|-2-----------|----4---|
[------------|-----------|-------------|-2-2----|
[------------|-----------|-------------|--------|
                                                                          
 Guitar 2 - Clean Delay Picking 
********************************                                                                 
[----10------|
[-12----12---|
[----------11|
[------------|
[------------|
[------------|

 Guitar 3 - Distorted Fuzz 
***************************
[-----------------------------------------------|
[-----------------------------------------------|
[-----------------------------------------------|
[-----------------------------------------------|
[-------------4---------------------------------|
[-------------------------4-------------2-------|


****************************************************************************
****************************************************************************
 Guitar 1 - 02:26
******************
 D           F#m             Bm        D      F#m      Bm                           
[-----------|---------------|-----2-||-----2-|-------2-|-----2-|
[-----------|---------------|----2--||----3--|------2--|----2--|
[-----2-----|-------2-------|---4---||---2---|-----2---|---4---|
[---4---4---|-----4---4-----|--4----||--0----|----4----|--4----|
[-5-------5-|---4-------4-2-|-2-----||-------|---4-----|-2-----|
[-----------|-2-------------|-------||-------|--2------|-------|

 Guitar 2
**********
[-----------------------------------|----12----|----9----|--10----|--10----|
[-----------------------------------|--15--15--|--10-10--|12--12--|12--12--|
[-----------------------------------|14------14|11-----11|------11|------11|
[-----------------------------------|----------|---------|--------|--------|
[-----------------------------------|----------|---------|--------|--------|
[-----------------------------------|----------|---------|--------|--------|

 Guitar 3
**********
[------------------------------------------------------------|
[------------------------------------------------------------|
[------------------------------------------------------------|
[--------------------------------------0-----0---------------|
[-0----------4---------------2-----------------------------2-|
[------------------------------------------------2-----2-----|


****************************************************************************
****************************************************************************
 Guitar 1 - 02:47
******************
 D     F#m      Bm      D                     F#m                   Bm
[---2-|------2-|-----2-|---2---2---2---2---2-|---2---5---2---5---2-|-----p-|
[--3--|-----2--|----2--|-3---2---3---2---3---|-2---2---2---2---2---|----3-2|
[-2---|----2---|---4---|---------------------|---------------------|---4---|
[0----|---4----|--4----|---------------------|---------------------|--4----|
[-----|--4-----|-2-----|---------------------|---------------------|-2-----|
[-----|-2------|-------|---------------------|---------------------|-------|

 Guitar 2
**********
[----12----|----9----|--10----|--10----|
[--15--15--|--10-10--|12--12--|12--12--|
[14------14|11-----11|------11|------11|
[----------|---------|--------|--------|
[----------|---------|--------|--------|
[----------|---------|--------|--------|

 Guitar 3
**********
[-------------------------------------------------------------------s------|
[------------------------------------------------------------------5\7-----|
[------------------------------------s-----------4-----4-6-7-6-4-----------|
[-0--0------------4--------0----0---2\4---4--------------------------------|
[---------------------2--------------------------------------------------9-|
[--------2----2------------------------------------------------------------|


****************************************************************************
****************************************************************************
 Guitar 1 - 03:08
******************
 D                     F#m                   Bm
[---2---2---2---2---2-|---2---5---2---5---2-|-----p---|
[-3---2---3---2---3---|-2---2---2---2---2---|----3-2--|
[---------------------|---------------------|---4-----|
[---------------------|---------------------|--4------|
[---------------------|---------------------|-2-------|
[---------------------|---------------------|---------|

 Guitar 2
**********
[--10----|--10----|--10----|
[12--12--|12--12--|12--12--|
[------11|------11|------11|
[--------|--------|--------|
[--------|--------|--------|
[--------|--------|--------|

 Guitar 3
**********
[----------------------------------------------|
[----------------------------------------------|
[----s-------------------------------------s---|
[---9\7--7-----------------7-------------7-\4--|
[----------------------------------------------|
[----------------------------------------------|


****************************************************************************
****************************************************************************
 Guitar 1 - 03:18
******************
 D             F#m           Bm            D      F#m      Bm                   
[-----0-2-0---|-----0-2-0---|-----2------||----2-|------2-|-------|
[---2-------2-|-------------|----2-----3-||---3--|-----2--|-------|
[-2-----------|---4-------4-|---4-----4--||--2---|----2---|-----4-|
[-------------|-2-----------|--4-----4---||-0----|---4----|---4---|
[-------------|-------------|-2-----2----||------|--4-----|-2-----|
[-------------|-------------|------------||------|-2------|-------|

 Guitar 2
**********
[--------------------------------------------------------------------10----|
[------------------------------------------------------------------12--12--|
[------------------------------------------------------------------------11|
[--------------------------------------------------------------------------|
[--------------------------------------------------------------------------|
[--------------------------------------------------------------------------|

 Guitar 3
**********
[--------------------------------------------------------------------------|
[--------------------------------------------------------------------------|
[--------------------------------------------------------------------------|
[--------------------------------------------------------------------------|
[--------------------------------------------------------------------------|
[--------------------------------------------------------------------------|


****************************************************************************
****************************************************************************
 Guitar 1 - 03:40
******************
 D      F#m      Bm      D      F#m      Bm      D      F#m      Bm
[----2-|------2-|------||----2-|------2-|------||----2-|------2-|------|
[---3--|-----2--|----2-||---3--|-----2--|----2-||---3--|-----2--|----2-|
[--2---|----2---|---4--||--2---|----2---|---4--||--2---|----2---|---4--|
[-0----|---4----|--4---||-0----|---4----|--4---||-0----|---4----|--4---|
[------|--4-----|-2----||------|--4-----|-2----||------|--4-----|-2----|
[------|-2------|------||------|-2------|------||------|-2------|------|

 Guitar 2
**********
[----12----|----9----|--10----|----12----|----9----|--10----|--------------|
[--15--15--|--10-10--|12--12--|--15--15--|--10-10--|12--12--|-play another-|
[14------14|11-----11|------11|14------14|11-----11|------11|--1 of these--|
[----------|---------|--------|----------|---------|--------|----i had no -|
[----------|---------|--------|----------|---------|--------|------room :)-|
[----------|---------|--------|----------|---------|--------|--------------|

 Guitar 3
**********
[--------------------------------------------------------------|
[-----s---------s------------------------------s---------s-----|
[-7--7\11-11--11\4-------------------------7--7\11-11--11\4--4-|
[-7--7\11-11--11\4-----------------s-------7--7\11-11--11\4--4-|
[-5--5\9--9----9\2---2--4--5--4--2-\9--2---5--5\9--9----9\2--2-|
[--------------------------------------------------------------|

****************************************************************************
****************************************************************************
 Guitar 1 - 04:11
******************
 D      F#m      Bm      D             F#m           Bm
[----2-|------2-|------||-------0-----|-------------|---------------|
[---3--|-----2--|----2-||-----3---3---|-------------|-------3-------|
[--2---|----2---|---4--||---2-------2-|-------2-----|-----4----4----|
[-0----|---4----|--4---||-0-----------|-----4---4---|---4---------4-|
[------|--4-----|-2----||-------------|---4-------2-|-2-------------|
[------|-2------|------||-------------|-2-----------|---------------|

 Guitar 2
**********
[----12----|----9----|--10----|----12----|----9----|--10----|
[--15--15--|--10-10--|12--12--|--15--15--|--10-10--|12--12--|
[14------14|11-----11|------11|14------14|11-----11|------11|
[----------|---------|--------|----------|---------|--------|
[----------|---------|--------|----------|---------|--------|
[----------|---------|--------|----------|---------|--------|

 Guitar 3
**********
[----------------------------|---------------------------------------------|
[-s-----s--------s-----------|------s----------s-----------s----------s----|
[4\7-7-7\11-11-11\16---------|-9-9-9\11---9-9-9\11----9-9-9\11---9-9-9\11--|
[4\7-7-7\11-11-11\16-------14|---------12----------10----------12--------9-|
[2\5-5-5\9--9--9-\14-16-17---|---------------------------------------------|
[----------------------------|---------------------------------------------|

****************************************************************************
****************************************************************************
 Guitar 1 - 04:31
******************
 D             F#m           Bm         D      F#m      Bm      
[-------0-----|-------------|--------2-|----2-|------2-|-----2-|
[-----3---3---|-------------|-------3--|---3--|-----2--|----3--|Repeat
[---2-------2-|-------2-----|------4---|--2---|----2---|---4---|To 
[-0-----------|-----4---4---|-----4----|-0----|---4----|--4----|Fade Out.
[-------------|---4-------2-|-2--2-----|------|--4-----|-2-----|
[-------------|-2-----------|----------|------|-2------|-------|

 Guitar 2
**********
[------12-----------9----------10------|--10----|--10----|--10----|--10----|
[---15-----------10---------12----12---|12--12--|12--12--|12--12--|12--12--|
[14-----------11---------------------11|------11|------11|------11|------11|
[--------------------------------------|--------|--------|--------|--------|
[--------------------------------------|--------|--------|--------|--------|
[--------------------------------------|--------|--------|--------|--------|

 Guitar 3
**********
[---------------------------------------------|
[------s----------s-----------s----------s----|Repeat 
[-9-9-9\11---9-9-9\11----9-9-9\11---9-9-9\11--|To
[---------12----------10----------12--------9-|Fade Out.
[---------------------------------------------|
[---------------------------------------------|

****************************************************************************
****************************************************************************
I,ve tried to line them up as best i could, its nearly there. 
This is a great song. Enjoy playing it................
comments
We did not receive enough feedback on this tab! Please rate:
print report bad tab
1 2 3 4 5
I want to post or [tab]
guest
You may want to rate the tab now too:
select rating
Please do not post tabs as comments. Select "correction" instead!