Oops, an error
Loading. Please wait.

Bad Blood Tab

870 views 3 this week
no commentswrite comment
1 2 3 4 5
excellent!
x 1
add to favorites launch autoscroll
font size
0
reset
Autoscroll
+/-
esc
set tempo
stop
Contributor
Difficulty
Tuning
intermediate
C G C F A D
WARNING: You are trying to view
                                    content from Ultimate-Guitar.com
                                    in an unauthorized application,
                                    which is prohibited.

                                    Please use an official Ultimate
                                    Guitar Tabs application for iPhone,
                                    iPad or Android to access legitimate
                                    chords, guitar, bass, and drum tabs
                                    from Ultimate-Guitar.com database.

                                    Type "ultimate guitar tabs" in Apple
                                    App Store's or Android Market's
                                    search to find the application.
PHINEHAS
BAD BLOOD

CGCFAD

*PALM MUTE

TABBED BY-andherembrace


---------------------------------------------------------------|
---------------------------------------------------------------|
---------------------------------------------------------------|
---------------------------------------------------------------|
---^---------------------------------^-----^-------------------|
-10-12-0-0-0-0-0-0-0-0-0-0-0-0-0-0-10-12-10-12-0-0-0-0-0-0-0-0-|


---------------------------------------------------------|
---------------------------------------------------------|
---------------------------------------------------------|
---------------------------------------------------------|
---^--------------------^--------------------------------|
-10-12-0-15-0-14-0-10-10-12-0-0-0-0-0-0-0-0-0-0-0-0-0-0--|
       *    *    *                                         

-------------------------------------------|
-------------------------------------------|
-------------------------------------------|
-------------------------------------------|
-12-10-8----10-8-------8-------------------|
---------12------12-10---12-10-8-8-10-12---|


------------------------------------------------------------|
------------------------------------------------------------|
------------------------------------------------------------|
------------------------------------------------------------|
---^---------------------------------^-----^----------------|
-10-12-0-0-0-0-0-0-0-0-0-0-0-0-0-0-10-12-10-12-0-0-0-0-0-0--|


---------------------------------------------------------|
---------------------------------------------------------|
---------------------------------------------------------|
---------------------------------------------------------|
---^--------------------^--------------------------------|
-10-12-0-15-0-14-0-10-10-12-0-0-0-0-0-0-0-0-0-0-0-0-0-0--|
       *    *    * 
                                        
L
-----------------------------------------|
-----------------------------------------|
-----------------------------------------|
-----------------------------------------|
-12-10-8----10-8-------8-----------^-----|
---------12------12-10---12-10-8-10-12---|
R
--------------------------------------|
--------------------------------------|
--------------------------------------|
-10-8-7----8-7------7---------^-------|
--------10-----10-8---10-8-7-7-8------|
--------------------------------------|


0:14

B
---------------------------------------------------------------------|
---------------------------------------------------------------------|
---------------------------------------------------------------------|
--^-------------------------------^---^---------------^--------------|
-3-5-----------------------------3-5-3-5-------------3-5-*-8-*-7-*-0-|
-----0-0-0-0-0-0-0-0-0-0-0-0-0-0---------0-0-0-0-0-0-----0---0---0---|
     * * * * * * * * * * * * * *         * * * * * *          

-------------------------------------------------------------------------|
-------------------------------------------------------------------------|
-------------------------------------------------------------------------|
--^-------------------------------^----------------5--------^--5----^----|
-3-5-----------------------------3-5---5---7---8-------8---5-7---7-3-7---|
-----0-0-0-0-0-0-0-0-0-0-0-0-0-0-----0---5---5---5---5---5---------------|
     * * * * * * * * * * * * * *     *   *   *   *   *   *               

---------------------------------------------------------------------|
---------------------------------------------------------------------|
---------------------------------------------------------------------|
--^-------------------------------^---^---------------^--------------|
-3-5-----------------------------3-5-3-5-------------3-5-*-8-*-7-*-0-|
-----0-0-0-0-0-0-0-0-0-0-0-0-0-0---------0-0-0-0-0-0-----0---0---0---|
     * * * * * * * * * * * * * *         * * * * * *          


L
-------------------------------------------------------------------------|
-------------------------------------------------------------------------|
-------------------------------------------------------------------------|
--^-------------------------------^----------------5--------^--5----^----|
-3-5-----------------------------3-5---5---7---8-------8---5-7---7-3-7---|
-----0-0-0-0-0-0-0-0-0-0-0-0-0-0-----0---5---5---5---5---5---------------|
     * * * * * * * * * * * * * *     *   *   *   *   *   *               
R
---------------------------------------------------------------------------|
---------------------------------------------------------------------------|
---------------------------------------------------------------------------|
--^-------------------------------^----------------8---------^---8-----^---|
-3-5-----------------------------3-5---8---10--12------12---8-10---10-7-10-|
-----0-0-0-0-0-0-0-0-0-0-0-0-0-0-----0---8---8---8---8----8----------------|
     * * * * * * * * * * * * * *     *   *   *   *   *    *               

0:28
L
---------------------------------------------------------------------|
---------------------------------------------------------------------|
---------------------------------------------------------------------|
--^-------------------------------^---^---------------^--------------|
-3-5-----------------------------3-5-3-5-------------3-5-*-8-*-7-*-0-|
-----0-0-0-0-0-0-0-0-0-0-0-0-0-0---------0-0-0-0-0-0-----0---0---0---|
     * * * * * * * * * * * * * *         * * * * * *          
R
---------------------------------------------------------------------|
---------------------------------------------------------------------|
---------------------------------------------------------------------|
--^-------------------------------^---^---------------^----7---5---0-|
-7-8-----------------------------7-8-7-8-------------7-8-*---*---*---|
-----0-0-0-0-0-0-0-0-0-0-0-0-0-0---------0-0-0-0-0-0-----0---0---0---|
     * * * * * * * * * * * * * *         * * * * * *          

L
-------------------------------------------------------------------------|
-------------------------------------------------------------------------|
-------------------------------------------------------------------------|
--^-------------------------------^----------------5--------^--5----^----|
-3-5-----------------------------3-5---5---7---8-------8---5-7---7-3-7---|
-----0-0-0-0-0-0-0-0-0-0-0-0-0-0-----0---5---5---5---5---5---------------|
     * * * * * * * * * * * * * *     *   *   *   *   *   *               
R
---------------------------------------------------------------------------|
---------------------------------------------------------------------------|
---------------------------------------------------------------------------|
--^-------------------------------^----------------8---------^---8-----^---|
-7-8-----------------------------7-8---8---10--12------12---8-10---10-7-10-|
-----0-0-0-0-0-0-0-0-0-0-0-0-0-0-----0---8---8---8---8----8----------------|
     * * * * * * * * * * * * * *     *   *   *   *   *    *               

L
---------------------------------------------------------------------|
---------------------------------------------------------------------|
---------------------------------------------------------------------|
--^-------------------------------^---^---------------^--------------|
-3-5-----------------------------3-5-3-5-------------3-5-*-8-*-7-*-0-|
-----0-0-0-0-0-0-0-0-0-0-0-0-0-0---------0-0-0-0-0-0-----0---0---0---|
     * * * * * * * * * * * * * *         * * * * * *          
R
---------------------------------------------------------------------|
---------------------------------------------------------------------|
---------------------------------------------------------------------|
--^-------------------------------^---^---------------^----7---5---0-|
-7-8-----------------------------7-8-7-8-------------7-8-*---*---*---|
-----0-0-0-0-0-0-0-0-0-0-0-0-0-0---------0-0-0-0-0-0-----0---0---0---|
     * * * * * * * * * * * * * *         * * * * * *          

L
----------------------------------------------------------------------------|
----------------------------------------------------------------------------|
----------------------------------------------------------------------------|
--^-------------------------------------------------------------------------|
-3-5-----------------------------3/5-12-10-8----10-8-------8----------------|
-----0-0-0-0-0-0-0-0-0-0-0-0-0-0-------------12------12-10---12-10-8-8-10-12|
     * * * * * * * * * * * * * *                   
R
------------------------------------------------------------------------|
------------------------------------------------------------------------|
------------------------------------------------------------------------|
--^-------------------------------^--10-8-7---8-7-----7-----------------|
-7-8-----------------------------7-8--------8-----8-7---8-7----5-7-8----|
-----0-0-0-0-0-0-0-0-0-0-0-0-0-0----------------------------10----------|
     * * * * * * * * * * * * * *               


0:42
L
------------------------------------------------------------------------|
------------------------------------------------------------------------|
------------------------------------------------------------------------|
------------------------------------------------------------------------|
-8-8-----------------------------8-8-7-7-----------------------------)--|
-----5-5-5-5-5-5-5-5-5-5-5-5-5-5---------7-7-7-7-7-7-7-7-7-7-7--10------|
R
----------------------------------------------------------------------|
----------------------------------------------------------------------|
----------------------------------------------------------------------|
-7-7-----------------------------7-7-5-5----------------------------)-|
----------------------------------------------------------------7-----|
-----5-5-5-5-5-5-5-5-5-5-5-5-5-5---------7-7-7-7-7-7-7-7-7-7-7--------|


0:46

L
---------------------------------------------------------|
---------------------------------------------------------|
---------------------------------__----------------------|
--------------------------------/  \---_----^------_-----|
-0-0-00000-0-0--0-0--0--0-0--0-8-12-8-/ \--8-5----/ \----|
-0-0-00000-0-0--0-0--0--0-0--0-------5-7-8-----8-5-7-8---|
 * * ***** * *  * *  *  * *  *                  
R
---------------------------------------------------------------|
---------------------------------__----------------------------|
--------------------------------/  \---------------------------|
-------------------------------8-12-8---__------^-------__-----|
-0-0-00000-0-0--0-0--0--0-0--0---------/  \---12-8-----/  \----|
-0-0-00000-0-0--0-0--0--0-0--0--------8-10-12------12-8-10-12--|
 * * ***** * *  * *  *  * *  *                 

L
---------------------------------------------------------|
---------------------------------------------------------|
---------------------------------__----------------------|
--------------------------------/  \---_----^------_-----|
-0-0-00000-0-0--0-0--0--0-0--0-8-12-8-/ \--8-5----/ \----|
-0-0-00000-0-0--0-0--0--0-0--0-------5-7-8-----8-5-7-8---|
 * * ***** * *  * *  *  * *  *                  
R
---------------------------------------------------------------|
---------------------------------__----------------------------|
--------------------------------/  \---------------------------|
-------------------------------8-12-8---__------^-------__-----|
-0-0-00000-0-0--0-0--0--0-0--0---------/  \---12-8-----/  \----|
-0-0-00000-0-0--0-0--0--0-0--0--------8-10-12------12-8-10-12--|
 * * ***** * *  * *  *  * *  * 

L
------------------------------------------------------------------------|
-------------------------------------------------------------------)----|
----------------------------------------------------------------9-------|
------------------------------------------------------------------------|
-8-8-----------------------------8-8-7-7--------------------------------|
-----5-5-5-5-5-5-5-5-5-5-5-5-5-5---------7-7-7-7-7-7-7-7-7-7-7----------|
R
----------------------------------------------------------------------|
----------------------------------------------------------------P-----|
----------------------------------------------------------------H--)--|
-7-7-----------------------------7-7-5-5------------------------7-----|
----------------------------------------------------------------------|
-----5-5-5-5-5-5-5-5-5-5-5-5-5-5---------7-7-7-7-7-7-7-7-7-7-7--------|


L
---------------------------------------------------------|
---------------------------------------------------------|
---------------------------------__----------------------|
--------------------------------/  \---_----^------_-----|
-0-0-00000-0-0--0-0--0--0-0--0-8-12-8-/ \--8-5----/ \----|
-0-0-00000-0-0--0-0--0--0-0--0-------5-7-8-----8-5-7-8---|
 * * ***** * *  * *  *  * *  *                  
R
---------------------------------------------------------------|
---------------------------------__----------------------------|
--------------------------------/  \---------------------------|
-------------------------------8-12-8---__------^-------__-----|
-0-0-00000-0-0--0-0--0--0-0--0---------/  \---12-8-----/  \----|
-0-0-00000-0-0--0-0--0--0-0--0--------8-10-12------12-8-10-12--|
 * * ***** * *  * *  *  * *  *                 

L
---------------------------------------------------------|
---------------------------------------------------------|
---------------------------------__----------------------|
--------------------------------/  \---_----^------_-----|
-0-0-00000-0-0--0-0--0--0-0--0-8-12-8-/ \--8-5----/ \----|
-0-0-00000-0-0--0-0--0--0-0--0-------5-7-8-----8-5-7-8---|
 * * ***** * *  * *  *  * *  *                  
R
---------------------------------------------------------------|
---------------------------------__----------------------------|
--------------------------------/  \---------------------------|
-------------------------------8-12-8---__------^-------__-----|
-0-0-00000-0-0--0-0--0--0-0--0---------/  \---12-8-----/  \----|
-0-0-00000-0-0--0-0--0--0-0--0--------8-10-12------12-8-10-12--|
 * * ***** * *  * *  *  * *  * 


1:09
L
------------------------------------------------------------------------|
------------------------------------------------------------------------|
------------------------------------------------------------------------|
---------------------------------------------------------------7-7-8-8--|
-8-8-----------------------------8-8-7-7--------------------------------|
-----5-5-5-5-5-5-5-5-5-5-5-5-5-5---------7-7-7-7-7-7-7-7-7-7-7----------|
R
-------------------------------------------------------------------------|
-------------------------------------------------------------------------|
-------------------------------------------------------------------------|
-7-7-----------------------------7-7-5-5---------------------------------|
---------------------------------------------------------------8-8-10-10-|
-----5-5-5-5-5-5-5-5-5-5-5-5-5-5---------7-7-7-7-7-7-7-7-7-7-7-----------|

L
-----------------------------------------------------------------------|
-----------------------------------------------------------------------|
-----------------------------------------------------------------------|
---------10-10---------12-12----------------7----10-8-7----7-----------|
------------------------------------8--10---------------10---10-8-7----|
-8-8-8-8-------8-8-8-8-------8-8-77---7---7---7------------------------|
R                                **   *   *   *       
----------------------------------------------------------------------|
----------------------------------------------------------------------|
----------------------------------------------------------------------|
-----------------------8-8-----------7---8---10---10-8-7----7---------|
---------12-12-------------------------------------------10---10-8-7--|
-8-8-8-8-------8-8-8-8-----8-8----77---7---7----7---------------------|
                                  **   *   *    *      


L
------------------------------------------------------------------------|
------------------------------------------------------------------------|
------------------------------------------------------------------------|
---------------------------------------------------------------7-7-8-8--|
-8-8-----------------------------8-8-7-7--------------------------------|
-----5-5-5-5-5-5-5-5-5-5-5-5-5-5---------7-7-7-7-7-7-7-7-7-7-7----------|
R
-------------------------------------------------------------------------|
-------------------------------------------------------------------------|
-------------------------------------------------------------------------|
-7-7-----------------------------7-7-5-5---------------------------------|
---------------------------------------------------------------8-8-10-10-|
-----5-5-5-5-5-5-5-5-5-5-5-5-5-5---------7-7-7-7-7-7-7-7-7-7-7-----------|

L
-----------------------------------------------------------------------|
-----------------------------------------------------------------------|
-----------------------------------------------------------------------|
---------10-10---------12-12-------------------------------------------|
---------------------------------12-10-8--10-8-------8-----------------|
-8-8-8-8-------8-8-8-8-------8-8--------10-----12-10---12-10-8-8-10-12-|
R                                     
------------------------------------------------------------------|
------------------------------------------------------------------|
------------------------------------------------------------------|
-----------------------8-8-----10-8-7---8-7-----7-----------------|
---------12-12------------------------8-----8-7---8-7----5-7-8----|
-8-8-8-8-------8-8-8-8-----8-8------------------------10----------|
                                       

1:23

----------------------------------------------------------------|
----------------------------------------------------------------|
----------------------------------------------------------------|
--^---------------------------^---^---------------^-------------|
-3-5-------------------------3-5-3-5-------------3-5-*-8-*-7-*-0|
-----0-0-000-000-000-000-000--------0-0-000-000-----0---0---0---|
     * * *** *** *** *** ***        * * *** ***          

L
-----------------------------------------------------------|
-----------------------------------------------------PH----|
------------------------------------------------------5----|
--^-----------------------------------------5---7--5-------|
-3-5-------------------------3/5-7-----8-------------8-----|
-----0-0-000-000-000-000-000-------5-5---5-5--5---5-----5--|
     * * *** *** *** *** ***       * *   * *  *   *     *
R
---------------------------------------------------------------|
---------------------------------------------------------------|
------------------------------------------------5---8-7---PH---|
--^----------------------------^--5-----7----8-------------7---|
-3-5--------------------------7-8------------------------------|
-----0-0-000-000-000-000-000-------5-5---5-5--5---5-----5------|
     * * *** *** *** *** ***    -  * *   * *  *   *     *   
L
----------------------------------------------------------------|
----------------------------------------------------------------|
----------------------------------------------------------------|
--^---------------------------^---^---------------^-------------|
-3-5-------------------------3-5-3-5-------------3-5-*-8-*-7-*-0|
-----0-0-000-000-000-000-000--------0-0-000-000-----0---0---0---|
     * * *** *** *** *** ***        * * *** ***   
R       
----------------------------------------------------------------|
----------------------------------------------------------------|
----------------------------------------------------------------|
--^---------------------------^---^---------------^----7---5--0-|
-7-8-------------------------7-8-7-8-------------7-8-*---*---*--|
-----0-0-000-000-000-000-000--------0-0-000-000-----0---0---0---|
     * * *** *** *** *** ***        * * *** ***          

L
--------------------------------------------------------------|
--------------------------------------------------------------|
--------------------------------------------------------------|
--^-----------------------------------------------------------|
-3-5-------------------------3/5--12-10-8----10-8-------------|
-----0-0-000-000-000-000-000--------------12------12-10-8-----|
     * * *** *** *** *** ***           
R       
--------------------------------------------------------------|
--------------------------------------------------------------|
--------------------------------------------------------------|
--^---------------------------^---10-8-7----8-7------7--------|
-7-8-------------------------7-8---------10-----10-8---10-8-7-|
-----0-0-000-000-000-000-000----------------------------------|
     * * *** *** *** *** ***      


            
L
------------------------------------------------------------------------|
-------------------------------------------------------------------)----|
------------------------------------------------------------------------|
------------------------------------------------------------------------|
-8-8-----------------------------8-8-7-7-----------------------PH-------|
-----5-5-5-5-5-5-5-5-5-5-5-5-5-5---------7-7-7-7-7-7-7-7-7-7-7-10-------|
R
----------------------------------------------------------------------|
----------------------------------------------------------------P-----|
----------------------------------------------------------------H--)--|
-7-7-----------------------------7-7-5-5------------------------7-----|
----------------------------------------------------------------------|
-----5-5-5-5-5-5-5-5-5-5-5-5-5-5---------7-7-7-7-7-7-7-7-7-7-7--------|



L
---------------------------------------------------------|
---------------------------------------------------------|
---------------------------------__----------------------|
--------------------------------/  \---_----^------_-----|
-0-0-00000-0-0--0-0--0--0-0--0-8-12-8-/ \--8-5----/ \----|
-0-0-00000-0-0--0-0--0--0-0--0-------5-7-8-----8-5-7-8---|
 * * ***** * *  * *  *  * *  *                  
R
---------------------------------------------------------------|
---------------------------------__----------------------------|
--------------------------------/  \---------------------------|
-------------------------------8-12-8---__------^-------__-----|
-0-0-00000-0-0--0-0--0--0-0--0---------/  \---12-8-----/  \----|
-0-0-00000-0-0--0-0--0--0-0--0--------8-10-12------12-8-10-12--|
 * * ***** * *  * *  *  * *  *                 

L
---------------------------------------------------------|
---------------------------------------------------------|
---------------------------------__----------------------|
--------------------------------/  \---_----^------_-----|
-0-0-00000-0-0--0-0--0--0-0--0-8-12-8-/ \--8-5----/ \----|
-0-0-00000-0-0--0-0--0--0-0--0-------5-7-8-----8-5-7-8---|
 * * ***** * *  * *  *  * *  *                  
R
---------------------------------------------------------------|
---------------------------------__----------------------------|
--------------------------------/  \---------------------------|
-------------------------------8-12-8---__------^-------__-----|
-0-0-00000-0-0--0-0--0--0-0--0---------/  \---12-8-----/  \----|
-0-0-00000-0-0--0-0--0--0-0--0--------8-10-12------12-8-10-12--|
 * * ***** * *  * *  *  * *  * 


L
------------------------------------------------------------------------|
------------------------------------------------------------------------|
------------------------------------------------------------------------|
---------------------------------------------------------------PH-------|
-8-8-----------------------------8-8-7-7-----------------------10V------|
-----5-5-5-5-5-5-5-5-5-5-5-5-5-5---------7-7-7-7-7-7-7-7-7-7-7----------|
R
----------------------------------------------------------------------|
----------------------------------------------------------------P-----|
----------------------------------------------------------------H--)--|
-7-7-----------------------------7-7-5-5------------------------7-----|
----------------------------------------------------------------------|
-----5-5-5-5-5-5-5-5-5-5-5-5-5-5---------7-7-7-7-7-7-7-7-7-7-7--------|


L
---------------------------------------------------------|
---------------------------------------------------------|
---------------------------------__----------------------|
--------------------------------/  \---_----^------_-----|
-0-0-00000-0-0--0-0--0--0-0--0-8-12-8-/ \--8-5----/ \----|
-0-0-00000-0-0--0-0--0--0-0--0-------5-7-8-----8-5-7-8---|
 * * ***** * *  * *  *  * *  *                  
R
---------------------------------------------------------------|
---------------------------------__----------------------------|
--------------------------------/  \---------------------------|
-------------------------------8-12-8---__------^-------__-----|
-0-0-00000-0-0--0-0--0--0-0--0---------/  \---12-8-----/  \----|
-0-0-00000-0-0--0-0--0--0-0--0--------8-10-12------12-8-10-12--|
 * * ***** * *  * *  *  * *  *                 

L
---------------------------------------------------------|
---------------------------------------------------------|
---------------------------------__----------------------|
--------------------------------/  \---_----^------_-----|
-0-0-00000-0-0--0-0--0--0-0--0-8-12-8-/ \--8-5----/ \----|
-0-0-00000-0-0--0-0--0--0-0--0-------5-7-8-----8-5-7-8---|
 * * ***** * *  * *  *  * *  *                  
R
---------------------------------------------------------------|
---------------------------------__----------------------------|
--------------------------------/  \---------------------------|
-------------------------------8-12-8---__------^-------__-----|
-0-0-00000-0-0--0-0--0--0-0--0---------/  \---12-8-----/  \----|
-0-0-00000-0-0--0-0--0--0-0--0--------8-10-12------12-8-10-12--|
 * * ***** * *  * *  *  * *  * 


L
------------------------------------------------------------------------|
------------------------------------------------------------------------|
------------------------------------------------------------------------|
---------------------------------------------------------------7-7-8-8--|
-8-8-----------------------------8-8-7-7--------------------------------|
-----5-5-5-5-5-5-5-5-5-5-5-5-5-5---------7-7-7-7-7-7-7-7-7-7-7----------|
R
-------------------------------------------------------------------------|
-------------------------------------------------------------------------|
-------------------------------------------------------------------------|
-7-7-----------------------------7-7-5-5---------------------------------|
---------------------------------------------------------------8-8-10-10-|
-----5-5-5-5-5-5-5-5-5-5-5-5-5-5---------7-7-7-7-7-7-7-7-7-7-7-----------|

L
-----------------------------------------------------------------------|
-----------------------------------------------------------------------|
-----------------------------------------------------------------------|
---------10-10---------12-12----------------7----10-8-7----7-----------|
------------------------------------8--10---------------10---10-8-7----|
-8-8-8-8-------8-8-8-8-------8-8-77---7---7---7------------------------|
R                                **   *   *   *       
----------------------------------------------------------------------|
----------------------------------------------------------------------|
----------------------------------------------------------------------|
-----------------------8-8-----------7---8---10---10-8-7----7---------|
---------12-12-------------------------------------------10---10-8-7--|
-8-8-8-8-------8-8-8-8-----8-8----77---7---7----7---------------------|
                                  **   *   *    *      

L
------------------------------------------------------------------------|
------------------------------------------------------------------------|
------------------------------------------------------------------------|
---------------------------------------------------------------7-7-8-8--|
-8-8-----------------------------8-8-7-7--------------------------------|
-----5-5-5-5-5-5-5-5-5-5-5-5-5-5---------7-7-7-7-7-7-7-7-7-7-7----------|
R
-------------------------------------------------------------------------|
-------------------------------------------------------------------------|
-------------------------------------------------------------------------|
-7-7-----------------------------7-7-5-5---------------------------------|
---------------------------------------------------------------8-8-10-10-|
-----5-5-5-5-5-5-5-5-5-5-5-5-5-5---------7-7-7-7-7-7-7-7-7-7-7-----------|

L
-----------------------------------------------------------------------|
-----------------------------------------------------------------------|
-----------------------------------------------------------------------|
---------10-10---------12-12-------------------------------------------|
---------------------------------12-10-8--10-8-------8-----------------|
-8-8-8-8-------8-8-8-8-------8-8--------10-----12-10---12-10-8-8-10-12-|
R                                     
------------------------------------------------------------------|
------------------------------------------------------------------|
------------------------------------------------------------------|
-----------------------8-8-----10-8-7---8-7-----7-----------------|
---------12-12------------------------8-----8-7---8-7----5-7-8----|
-8-8-8-8-------8-8-8-8-----8-8------------------------10----------|
                                       


2:21


L
---------------------------------------------------------------------------|
---------------------------------------------------------------------------|
--7-----10---9---5--3------10---9--5---7-----10---9---5--3------10---9--5--|
--X------X---X---X--X-------X---X--X---X------X---X---X--X-------X---X--X--|
--5------8---7---3--1-------8---7--3---5------8---7---3--1-------8---7--3--|
---------------------------------------------------------------------------|
R
---------------------------------------------------------------------------|
---------------------------------------------------------------------------|
--7-----10---------3--------5---------10------14--12---9---7----14--12---9-|
--X------X---------X--------X----------X-------X---X---X---X-----X---X---X-|
--5------8---------1--------3----------8------12--10---7---5----12--10---7-|
---------------------------------------------------------------------------|


2:35

L
------------------------------------------------------------------------------|
------------------------------------------------------------------------------|
--14-10-12-10-9-10------10-12-10-9-10-9----14-10-12-10-9-10-----10-12-10-9-10-|
------------------12/14-----------------12-----------------12/14--------------|
------------------------------------------------------------------------------|
------------------------------------------------------------------------------|
R
----------------------------------------------------------------------------|
-13-10-11-10-----------10-11-10--10-----13-10--11-10-----------10-11-10--10-|
------------12-14-10-12--------12--12-10------------12-14-10-12--------12---|
----------------------------------------------------------------------------|
----------------------------------------------------------------------------|
----------------------------------------------------------------------------|

L
-----------------------------------------------------------------------------------|
------------------------------------------------------------------/\---11-10-------|
--14-10-12-10-9-10------10-12-10-9-10-9----14-10-12-10-9-10-----101214------12-10-9|
------------------12/14-----------------12-----------------12/14-------------------|
-----------------------------------------------------------------------------------|
-----------------------------------------------------------------------------------|
R
-----------------------------------------------------------------/\---10-----------|
13-10-11-10-----------10-11-10--10-----13-10--11-10-----------101113----13-11-10---|
-----------12-14-10-12--------12--12-10------------12-14-10-12------------------12-|
-----------------------------------------------------------------------------------|
-----------------------------------------------------------------------------------|
-----------------------------------------------------------------------------------|


L
--------------------------------------------------------------------------|
-------------------------------------------------------------------)~~~---|
--14-10-12-10-9-10------10-12-10-9-10-9----14-10-12-10-9-10------12-------|
------------------12/14-----------------12-----------------12/14----------|
--------------------------------------------------------------------------|
--------------------------------------------------------------------------|
R
-----------------------------------------------------------------)~~~~--|
-13-10-11-10-----------10-11-10--10-----13-10--11-10-----------13-------|
------------12-14-10-12--------12--12-10------------12-14-10-12---------|
------------------------------------------------------------------------|
------------------------------------------------------------------------|
------------------------------------------------------------------------|


2:50

---------------------------------------------------------------------------|
-3--6-5-6--3--6-5-6--3--6-5-6--3--6-5--------------------------------------|
---------------------------------------3--7-5-7--3--7-5-7--3--7-5-7--3--7-5|
---------------------------------------------------------------------------|
---------------------------------------------------------------------------|
---------------------------------------------------------------------------|

---------------------------------------------------------------|
---------------------------------------------------------------|
---------------------------------------------------------------|
-5--8-7-8--5--8-7-8--5--8-7-8--5--8-7--------------------------|
---------------------------------------5--8-7-8--5--8-7-8------|
---------------------------------------------------------------|



L
-----------------------------------------------------------------|
-----------------------3--6-5-6--3--6-5-6--3--6-5-6--3--6-5------|
-5---------------------------------------------------------------|
---8-7-5---------------------------------------------------------|
---------8-7-5---------------------------------------------------|
-----------------------------------------------------------------|
R
------------------------------------------------------------------|
-----------------------6--10-8-10--6--10-8-10--6--10-8-10-6--10-8-|
-14-12-10---------------------------------------------------------|
----------14-12-10------------------------------------------------|
-------------------12---------------------------------------------|
------------------------------------------------------------------|


L
----------------------------------------------------------------------------|
----------------------------------------------------------------------------|
-3--7-5-7--3--7-5-7--3--7-5-7--3--7-5---------------------------------------|
----------------------------------------5--8-7-8--5--8-7-8--5--8-7-8--5--8-7|
----------------------------------------------------------------------------|
----------------------------------------------------------------------------|
R
--------------------------------------------------------------------------------|
8-11-10-11-8-11-10-11-8-11-10-11-8-11-10----------------------------------------|
----------------------------------------9-12-10-12-9-12-10-12-9-12-10-12-9-12-10|
--------------------------------------------------------------------------------|
--------------------------------------------------------------------------------|
--------------------------------------------------------------------------------|

L
-------------------------------------------------|
-------------------------------------------------|
---------------------5---------------------------|
-----------------------8-7-5---------------------|
-5--8-7-8--5--8-7-8----------8-7-5---------------|
-------------------------------------------------|
R
-----------------------------------------------------|
-----------------------------------------------------|
-10--14-12-14--10--14-12-14--14-12-10----------------|
--------------------------------------14-12-10-------|
-----------------------------------------------12----|
-----------------------------------------------------|

L
-----------------------------------------------------------------------------|
6-10-8-10-6-10-8-10-6-10-8-10-6-10-8-8-11-10-11-8-11-10-11-8-11-10-11-8-11-10|
-----------------------------------------------------------------------------|
-----------------------------------------------------------------------------|
-----------------------------------------------------------------------------|
-----------------------------------------------------------------------------|
R
10-131213-10-131213-10-131213-10-1312----------------------------------------|
-------------------------------------11-151315-11-151315-11-151315-11-1513---|
-----------------------------------------------------------------------------|
-----------------------------------------------------------------------------|
-----------------------------------------------------------------------------|
-----------------------------------------------------------------------------|

L
--------------------------------------------------------------------|
--------------------------------------------------------------------|
-9-12-10-12-9-12-10-12-9-12-10-12-9-12-10-10--14-12-14--10--14-12-14|
--------------------------------------------------------------------|
--------------------------------------------------------------------|
--------------------------------------------------------------------|
R
---------------------------------------------------------------|
---------------------------------------------------------------|
-12-151415-12-151415-12-151415-12-1514-------------------------|
---------------------------------------12-151415-12-151415-----|
---------------------------------------------------------------|
---------------------------------------------------------------|

L                     __
-------------__------/  \---10-------|
----__------/  \---10-12-14----------|
---/  \---10-12-14-------------------|
-10-12-14----------------------------|
-------------------------------------|
-------------------------------------|
R
---------------------__--------------|
-------------__-----/  \---12--------|
----__------/  \--12-14-15-----------|
---/  \---12-14-15-------------------|
-12-14-15----------------------------|
-------------------------------------|

3:11

L
10-131213-10-131213-10-131213-10-1312----------------------------------------|
-------------------------------------11-151315-11-151315-11-151315-11-1513---|
-----------------------------------------------------------------------------|
-----------------------------------------------------------------------------|
-----------------------------------------------------------------------------|
-----------------------------------------------------------------------------|
R
13-171517-13-171517-13-171517-13-1715-15-181718-15-181718-15-181718-15-1817--|
-----------------------------------------------------------------------------|
-----------------------------------------------------------------------------|
-----------------------------------------------------------------------------|
-----------------------------------------------------------------------------|
-----------------------------------------------------------------------------|

L
--------------------------------------------------------------------|
--------------------------------------------------------------------|
-9-12-10-12-9-12-10-12-9-12-10-12-9-12-10-10--14-12-14--10--14-12-14|
--------------------------------------------------------------------|
--------------------------------------------------------------------|
--------------------------------------------------------------------|
R
-12-151315--12-151315-12-151315-12-1513-|
----------------------------------------|
----------------------------------------|
----------------------------------------|
----------------------------------------|
----------------------------------------|

L
------------------------------------------|
------------------------------------------|
-12-151415-12-151415-12-151415-12-1514----|
------------------------------------------|
------------------------------------------|
------------------------------------------|

L
-----------------------------------------------------------------------------|
-----------------------------------------------------------------------------|
--14-10-12-10-9-10------10-12-10-9-10-9----14-10-12-10-9-10-----10-12-10-9-10|
------------------12/14-----------------12-----------------12/14-------------|
-----------------------------------------------------------------------------|
-----------------------------------------------------------------------------|
R
----------------------------------------------------------------------------|
-13-10-11-10-----------10-11-10--10-----13-10--11-10-----------10-11-10--10-|
------------12-14-10-12--------12--12-10------------12-14-10-12--------12---|
----------------------------------------------------------------------------|
----------------------------------------------------------------------------|
----------------------------------------------------------------------------|



---------------------------------------------------------------------------------|
---------------------------------------------------------------------------------|
---------------------------------------------------------------------------------|
---------------------------------------------------------------------------------|
-0000-0000---0000-0-0000--0000-0000000--0000-0000---0000-0-0000--0000-00000------|
-0000-0000---0000-0-0000--0000-0000000--0000-0000---0000-0-0000--0000-00000-1V---|
 **** ****   **** * ****  **** *******  **** ****   **** * ****  **** *****

---------------------------------------------------------------------------------|
---------------------------------------------------------------------------------|
---------------------------------------------------------------------------------|
---------------------------------------------------------------------------------|
-0000-0000---0000-0-0000--0000-0000000--0000-0000---0000-0-0000--0000------------|
-0000-0000---0000-0-0000--0000-0000000--0000-0000---0000-0-0000--0000-11111-0|---|
 **** ****   **** * ****  **** *******  **** ****   **** * ****  **** *****






comments
We did not receive enough feedback on this tab! Please rate:
print report bad tab
1 2 3 4 5
I want to post or [tab]
guest
You may want to rate the tab now too:
select rating
Please do not post tabs as comments. Select "correction" instead!