Oops, an error
Loading. Please wait.

Crowns Tab

ver1
ver1

Whole song

Interactive

More versions @911Tabs.com
6,509 views 45 this week
no commentswrite comment
1 2 3 4 5
excellent!
x 4
Autoscroll
+/-
esc
set tempo
stop
Contributor
Difficulty
Tuning
intermediate
C G C F A D
Hey! There's an official Ultimate Guitar app which is ideal
for learning songs when you're away from computer. Get the app
WARNING: You are trying to view
                                    content from Ultimate-Guitar.com
                                    in an unauthorized application,
                                    which is prohibited.

                                    Please use an official Ultimate
                                    Guitar Tabs application for iPhone,
                                    iPad or Android to access legitimate
                                    chords, guitar, bass, and drum tabs
                                    from Ultimate-Guitar.com database.

                                    Type "ultimate guitar tabs" in Apple
                                    App Store's or Android Market's
                                    search to find the application.
PHINEHAS

CROWNS

CGCFAD

TABBED BY-andherembrace


B
------------__---------------------_---------------------|
-----------/  \-------------------/ \--------------------|
----------7-10-7---10------------7-9-7----9--------------|
-----------------7----------------------7----------------|
-8-8-8-8----------------8-8-8-8---------------8-10-8-7---|
-8-8-8-8----------------8-8-8-8---------------8-10-8-7---|
 * * * *         *      * * * *         *     *  * * *

------------__-----------------------__------------------------------|
-----------/  \---------------------/  \-----------------------------|
---------10-14-10----14-----------10-12-10---12--14-12-10--12-10-----|
------------------12-----------------------14------------14-----14-12|
-0-0-0-0------------------0-0-0-0------------------------------------|
-0-0-0-0------------------0-0-0-0------------------------------------|
 * * * *           *      * * * *


0:07
B

------------__---------------------_---------------------|
-----------/  \-------------------/ \--------------------|
----------7-10-7---10------------7-9-7----9--------------|
-----------------7----------------------7----------------|
-8-8-8-8----------------8-8-8-8---------------8-10-8-7---|
-8-8-8-8----------------8-8-8-8---------------8-10-8-7---|
 * * * *         *      * * * *         *     *  * * *

------------__-----------------------__------------------------------|
-----------/  \---------------------/  \-----------------------------|
---------10-14-10----14-----------10-12-10---12--14-12-10--12-10-----|
------------------12-----------------------14------------14-----14-12|
-0-0-0-0------------------0-0-0-0------------------------------------|
-0-0-0-0------------------0-0-0-0------------------------------------|
 * * * *           *      * * * *


0:13
L
------------__---------------------_---------------------|
-----------/  \-------------------/ \--------------------|
----------7-10-7---10------------7-9-7----9--------------|
-----------------7----------------------7----------------|
-8-8-8-8----------------8-8-8-8---------------8-10-8-7---|
-8-8-8-8----------------8-8-8-8---------------8-10-8-7---|
 * * * *         *      * * * *         *     *  * * *

R
------------__----------------------__----------------------|
-----------/  \--------------------/  \---------------------|
---------10-14-10----14----------10-12-10---12--------------|
------------------12----------------------14----------------|
-8-8-8-8----------------8-8-8-8------------------8-10-8-7---|
-8-8-8-8----------------8-8-8-8------------------8-10-8-7---|
 * * * *          *     * * * *                  *  * * *

L
------------__-----------------------__------------------------------|
-----------/  \---------------------/  \-----------------------------|
---------10-14-10----14-----------10-12-10---12--14-12-10--12-10-----|
------------------12-----------------------14------------14-----14-12|
-0-0-0-0------------------0-0-0-0------------------------------------|
-0-0-0-0------------------0-0-0-0------------------------------------|
 * * * *           *      * * * *
R           __                        __
-----------/  \----------------------/  \-------------------------------|
---------10-15-10----15------------10-11-10----11--13-11-10--11-10------|
------------------10------------------------12-------------12-----12-10-|
------------------------------------------------------------------------|
-0-0-0-0------------------0-0-0-0---------------------------------------|
-0-0-0-0------------------0-0-0-0---------------------------------------|
 * * * *           *      * * * *            *


0:21
L
------------__---------------------_---------------------|
-----------/  \-------------------/ \--------------------|
----------7-10-7---10------------7-9-7----9--------------|
-----------------7----------------------7----------------|
-8-8-8-8----------------8-8-8-8---------------8-10-8-7---|
-8-8-8-8----------------8-8-8-8---------------8-10-8-7---|
 * * * *         *      * * * *         *     *  * * *

R
------------__----------------------__----------------------|
-----------/  \--------------------/  \---------------------|
---------10-14-10----14----------10-12-10---12--------------|
------------------12----------------------14----------------|
-8-8-8-8----------------8-8-8-8------------------8-10-8-7---|
-8-8-8-8----------------8-8-8-8------------------8-10-8-7---|
 * * * *          *     * * * *                  *  * * *

B
--------------------------|
--------------------------|
--------------------------|
--------------------------|
-0000----0000----0000-----|
-0000----0000----0000-----|
 ****    ****    ****



0:27
L
-----------------------------------------------------------------------|
------------------------------------------------------------_----------|
------------------------_----------------------------^-----/ \--5---7--|
------8---7---8--------/ \--5----------8---7---8----8-7---5-7-8---7----|
------------------5---5-7-8---8-7-5---------------------8--------------|
-8--8---8---8---8---8----------------8---8---8---8---------------------|
    *   *   *   *   *                *   *   *   *      *         *
R
------------------------------------------------------------------------|
------------------------------------------------------------------------|
-----------------------------------------------------^-----/\---9----10-|
----12---10--12-------/\---8----------12---10--12--10-8---81012---10----|
-----------------8---81012--12-10-8---------------------12--------------|
8--8---8---8---8---8-----------------8---8---8---8----------------------|
   *   *   *   *   *                 *   *   *   *      *         


0:32
L                                                   ^
--------------------------------------------------10-8-----------|
--------------------/\---)(-----------10-----10/11-----10--------|
---7---5---9---7---5/79-9---5-7---5-7----5-7-------------10-9-7--|
-0---0---0---0---0-----------------------------------------------|
-----------------------------------------------------------------|
-----------------------------------------------------------------|
 *   *   *   *   *                * *    * *       
R                                                        ^
---------------------__--------------------------------13-12----------|
--------------------/  \----)(-----------13------13/15------13--------|
--10---9---12--10--9/1012-12--9-10--9-10----9-10--------------14-12-10|
-0---0---0---0---0----------------------------------------------------|
----------------------------------------------------------------------|
----------------------------------------------------------------------|
 *   *   *   *   *                   * *     * * 

0:36
L
-----------------------------------------------------------------------|
------------------------------------------------------------_----------|
------------------------_----------------------------^-----/ \--5---7--|
------8---7---8--------/ \--5----------8---7---8----8-7---5-7-8---7----|
------------------5---5-7-8---8-7-5---------------------8--------------|
-8--8---8---8---8---8----------------8---8---8---8---------------------|
    *   *   *   *   *                *   *   *   *      *         *
R
------------------------------------------------------------------------|
------------------------------------------------------------------------|
-----------------------------------------------------^-----/\---9----10-|
----12---10--12-------/\---8----------12---10--12--10-8---81012---10----|
-----------------8---81012--12-10-8---------------------12--------------|
8--8---8---8---8---8-----------------8---8---8---8----------------------|
   *   *   *   *   *                 *   *   *   *      *         

0:40
L                                                   ^
--------------------------------------------------10-8-----------|
--------------------/\---)(-----------10-----10/11-----10--------|
---7---5---9---7---5/79-9---5-7---5-7----5-7-------------10-9-7--|
-0---0---0---0---0-----------------------------------------------|
-----------------------------------------------------------------|
-----------------------------------------------------------------|
 *   *   *   *   *                * *    * *       
R                                                        ^
---------------------__--------------------------------13-12----------|
--------------------/  \----)(-----------13------13/15------13--------|
--10---9---12--10--9/1012-12--9-10--9-10----9-10--------------14-12-10|
-0---0---0---0---0----------------------------------------------------|
----------------------------------------------------------------------|
----------------------------------------------------------------------|
 *   *   *   *   *                  * *     * * 


0:45
L
-----------------------------------------------------------------------|
------------------------------------------------------------_----------|
------------------------_----------------------------^-----/ \--5---7--|
------8---7---8--------/ \--5----------8---7---8----8-7---5-7-8---7----|
------------------5---5-7-8---8-7-5---------------------8--------------|
-8--8---8---8---8---8----------------8---8---8---8---------------------|
    *   *   *   *   *                *   *   *   *      *         *
R
------------------------------------------------------------------------|
------------------------------------------------------------------------|
-----------------------------------------------------^-----/\---9----10-|
----12---10--12-------/\---8----------12---10--12--10-8---81012---10----|
-----------------8---81012--12-10-8---------------------12--------------|
8--8---8---8---8---8-----------------8---8---8---8----------------------|
   *   *   *   *   *                 *   *   *   *      *         

0:49
L                                                   ^
-----------------------PH-------------------------10-8-----------|
--------------------/\---)(-----------10-----10/11-----10--------|
---7---5---9---7---5/79-9---5-7---5-7----5-7-------------10-9-7--|
-0---0---0---0---0-----------------------------------------------|
-----------------------------------------------------------------|
-----------------------------------------------------------------|
 *   *   *   *   *                * *    * *       
R                                                        ^
---------------------__---PH---------------------------13-12----------|
--------------------/  \----)(-----------13------13/15------13--------|
--10---9---12--10--9/1012-12--9-10--9-10----9-10--------------14-12-10|
-0---0---0---0---0----------------------------------------------------|
----------------------------------------------------------------------|
----------------------------------------------------------------------|
 *   *   *   *   *                  * *     * * 

0:54
L
-----------------------------------------------------------------------|
------------------------------------------------------------_----------|
------------------------_----------------------------^-----/ \--5---7--|
------8---7---8--------/ \--5----------8---7---8----8-7---5-7-8---7----|
------------------5---5-7-8---8-7-5---------------------8--------------|
-8--8---8---8---8---8----------------8---8---8---8---------------------|
    *   *   *   *   *                *   *   *   *      *         *
R
------------------------------------------------------------------------|
------------------------------------------------------------------------|
-----------------------------------------------------^-----/\---9----10-|
----12---10--12-------/\---8----------12---10--12--10-8---81012---10----|
-----------------8---81012--12-10-8---------------------12--------------|
8--8---8---8---8---8-----------------8---8---8---8----------------------|
   *   *   *   *   *                 *   *   *   *      *         

0:59
L                                                   ^
--------------------------------------------------10-8------8-10-|
--------------------/\---)(-----------10-----10/11-----10--------|
---7---5---9---7---5/79-9---5-7---5-7----5-7-------------10------|
-0---0---0---0---0-----------------------------------------------|
-----------------------------------------------------------------|
-----------------------------------------------------------------|
 *   *   *   *   *                * *    * *       
R                                                        ^
---------------------__--------------------------------13-12----12-13-|
--------------------/  \----)(-----------13------13/15------13--------|
--10---9---12--10--9/1012-12--9-10--9-10----9-10--------------14------|
-0---0---0---0---0----------------------------------------------------|
----------------------------------------------------------------------|
----------------------------------------------------------------------|
 *   *   *   *   *                  * *     * * 


1:03

L
------------__---------------------_---------------------|
-----------/  \-------------------/ \--------------------|
----------7-10-7---10------------7-9-7----9--------------|
-----------------7----------------------7----------------|
-8-8-8-8----------------8-8-8-8---------------8-10-8-7---|
-8-8-8-8----------------8-8-8-8---------------8-10-8-7---|
 * * * *         *      * * * *         *     *  * * *

R
------------__----------------------__----------------------|
-----------/  \--------------------/  \---------------------|
---------10-14-10----14----------10-12-10---12--------------|
------------------12----------------------14----------------|
-8-8-8-8----------------8-8-8-8------------------8-10-8-7---|
-8-8-8-8----------------8-8-8-8------------------8-10-8-7---|
 * * * *          *     * * * *                  *  * * *

L
------------__-----------------------__------------------------------|
-----------/  \---------------------/  \-----------------------------|
---------10-14-10----14-----------10-12-10---12--14-12-10--12-10-----|
------------------12-----------------------14------------14-----14-12|
-0-0-0-0------------------0-0-0-0------------------------------------|
-0-0-0-0------------------0-0-0-0------------------------------------|
 * * * *           *      * * * *
R           __                        __
-----------/  \----------------------/  \-------------------------------|
---------10-15-10----15------------10-11-10----11--13-11-10--11-10------|
------------------10------------------------12-------------12-----12-10-|
------------------------------------------------------------------------|
-0-0-0-0------------------0-0-0-0---------------------------------------|
-0-0-0-0------------------0-0-0-0---------------------------------------|
 * * * *           *      * * * *            *

1:09
L
------------__---------------------_---------------------|
-----------/  \-------------------/ \--------------------|
----------7-10-7---10------------7-9-7----9--------------|
-----------------7----------------------7----------------|
-8-8-8-8----------------8-8-8-8---------------8-10-8-7---|
-8-8-8-8----------------8-8-8-8---------------8-10-8-7---|
 * * * *         *      * * * *         *     *  * * *

R
------------__----------------------__----------------------|
-----------/  \--------------------/  \---------------------|
---------10-14-10----14----------10-12-10---12--------------|
------------------12----------------------14----------------|
-8-8-8-8----------------8-8-8-8------------------8-10-8-7---|
-8-8-8-8----------------8-8-8-8------------------8-10-8-7---|
 * * * *          *     * * * *                  *  * * *

1:12
L
------------__-----------------------__-------------|
-----------/  \---------------------/  \------------|
---------10-14-10----14-----------10-12-10---12-----|
------------------12-----------------------14-------|
-0-0-0-0------------------0-0-0-0-------------------|
-0-0-0-0------------------0-0-0-0-------------------|
 * * * *           *      * * * *
R           __                        __
-----------/  \----------------------/  \---------------------------|
---------10-15-10----15------------10-11-10----11-------------------|
------------------10------------------------12-----1717171717171717-|
---------------------------------------------------1212121212121212-|
-0-0-0-0------------------0-0-0-0------------------1515151515151515-|
-0-0-0-0------------------0-0-0-0-----------------------------------|
 * * * *           *      * * * *            *



1:16
L
---_____________________________-----_____________________________---|
--/                             \---/                             \--|
-5-9-10-7-0-9-5-0-9-0-10-0-9-0-7-0-5-9-10-7-0-9-5-0-9-0-10-0-9-0-7-0-|
---------------------------------------------------------------------|
---------------------------------------------------------------------|
---------------------------------------------------------------------|

R
------------------------------------------------------------------------|
------------------------------------------------------------------------|
-7-7-7-7-7-7-7-7-7-7-7-7-7-7-7-7----------------------------------------|
---------------------------------10-10-10-10-10-10-10-10-8-8-8-8-7-7-7-7|
------------------------------------------------------------------------|
------------------------------------------------------------------------|



1:20
L
---_____________________________-----_____________________________---|
--/                             \---/                             \--|
-5-9-10-7-0-9-5-0-9-0-10-0-9-0-7-0-5-9-10-7-0-9-5-0-9-0-10-0-9-0-7-0-|
---------------------------------------------------------------------|
---------------------------------------------------------------------|
---------------------------------------------------------------------|

R
-----------------------------------------------------------------------|
-----------------------------------------------------------------------|
-----------------------------------------------------------------------|
-----------------------7-7-7-7-----------------7-7-7-7-10-10-10-10-----|
8-8-8-8-8-8-8-8-8-8-8-8--------7-7-7-7-7-7-7-7-------------------------|
-----------------------------------------------------------------------|


1:24
L
---_____________________________-----_____________________________---|
--/                             \---/                             \--|
-5-9-10-7-0-9-5-0-9-0-10-0-9-0-7-0-5-9-10-7-0-9-5-0-9-0-10-0-9-0-7-0-|
---------------------------------------------------------------------|
---------------------------------------------------------------------|
---------------------------------------------------------------------|

R
------------------------------------------------------------------------|
------------------------------------------------------------------------|
-7-7-7-7-7-7-7-7-7-7-7-7-7-7-7-7----------------------------------------|
---------------------------------10-10-10-10-10-10-10-10-8-8-8-8-7-7-7-7|
------------------------------------------------------------------------|
------------------------------------------------------------------------|

1:27
L
---_____________________________-----_____________________________---|
--/                             \---/                             \--|
-5-9-10-7-0-9-5-0-9-0-10-0-9-0-7-0-5-9-10-7-0-9-5-0-9-0-10-0-9-0-7-0-|
---------------------------------------------------------------------|
---------------------------------------------------------------------|
---------------------------------------------------------------------|

R
------------------------------------_________________________________--|
-----------------------------------/                                 \-|
---------------------------------14-10-0-12-9-0-12-0-14-0-12-0-10-0-9-0|
-------------------------7-7-7-7---------------------------------------|
-8-8-8-8-8-8-8-8-8-8-8-8-----------------------------------------------|
-----------------------------------------------------------------------|


1:30

L
-----------------------------------------------------------------------|
------------------------------------------------------------_----------|
------------------------_----------------------------^-----/ \--5---7--|
------8---7---8--------/ \--5----------8---7---8----8-7---5-7-8---7----|
------------------5---5-7-8---8-7-5---------------------8--------------|
-8--8---8---8---8---8----------------8---8---8---8---------------------|
    *   *   *   *   *                *   *   *   *      *         *
R
------------------------------------------------------------------------|
------------------------------------------------------------------------|
-----------------------------------------------------^-----/\---9----10-|
----12---10--12-------/\---8----------12---10--12--10-8---81012---10----|
-----------------8---81012--12-10-8---------------------12--------------|
8--8---8---8---8---8-----------------8---8---8---8----------------------|
   *   *   *   *   *                 *   *   *   *      *         


L                                                   ^
--------------------------------------------------10-8-----------|
--------------------/\---)(-----------10-----10/11-----10--------|
---7---5---9---7---5/79-9---5-7---5-7----5-7-------------10-9-7--|
-0---0---0---0---0-----------------------------------------------|
-----------------------------------------------------------------|
-----------------------------------------------------------------|
 *   *   *   *   *                * *    * *       
R                                                        ^
---------------------__--------------------------------13-12----------|
--------------------/  \----)(-----------13------13/15------13--------|
--10---9---12--10--9/1012-12--9-10--9-10----9-10--------------14-12-10|
-0---0---0---0---0----------------------------------------------------|
----------------------------------------------------------------------|
----------------------------------------------------------------------|
 *   *   *   *   *                * *     * * 

L
-----------------------------------------------------------------------|
------------------------------------------------------------_----------|
------------------------_----------------------------^-----/ \--5---7--|
------8---7---8--------/ \--5----------8---7---8----8-7---5-7-8---7----|
------------------5---5-7-8---8-7-5---------------------8--------------|
-8--8---8---8---8---8----------------8---8---8---8---------------------|
    *   *   *   *   *                *   *   *   *      *         *
R
------------------------------------------------------------------------|
------------------------------------------------------------------------|
-----------------------------------------------------^-----/\---9----10-|
----12---10--12-------/\---8----------12---10--12--10-8---81012---10----|
-----------------8---81012--12-10-8---------------------12--------------|
8--8---8---8---8---8-----------------8---8---8---8----------------------|
   *   *   *   *   *                 *   *   *   *      *         


L                                                   ^
--------------------------------------------------10-8-----------|
--------------------/\---)(-----------10-----10/11-----10--------|
---7---5---9---7---5/79-9---5-7---5-7----5-7-------------10-9-7--|
-0---0---0---0---0-----------------------------------------------|
-----------------------------------------------------------------|
-----------------------------------------------------------------|
 *   *   *   *   *                * *    * *       
R                                                        ^
---------------------__--------------------------------13-12----------|
--------------------/  \----)(-----------13------13/15------13--------|
--10---9---12--10--9/1012-12--9-10--9-10----9-10--------------14-12-10|
-0---0---0---0---0----------------------------------------------------|
----------------------------------------------------------------------|
----------------------------------------------------------------------|
 *   *   *   *   *                   * *     * * 

L
-----------------------------------------------------------------------|
------------------------------------------------------------_----------|
------------------------_----------------------------^-----/ \--5---7--|
------8---7---8--------/ \--5----------8---7---8----8-7---5-7-8---7----|
------------------5---5-7-8---8-7-5---------------------8--------------|
-8--8---8---8---8---8----------------8---8---8---8---------------------|
    *   *   *   *   *                *   *   *   *      *         *
R
------------------------------------------------------------------------|
------------------------------------------------------------------------|
-----------------------------------------------------^-----/\---9----10-|
----12---10--12-------/\---8----------12---10--12--10-8---81012---10----|
-----------------8---81012--12-10-8---------------------12--------------|
8--8---8---8---8---8-----------------8---8---8---8----------------------|
   *   *   *   *   *                 *   *   *   *      *         



L                                                   
-----------------------PH-------------------------------|
--------------------/\---)(-----------------------------|
---7---5---9---7---5/79-9---5-7------------7-6----------|
-0---0---0---0---0-------------------------5-4----------|
------------------------------------10-9---5-4---PH~~---|
-------------------------------------8-7-0-----0--3-----|
 *   *   *   *   *                       *     *
R                                                        
---------------------__---PH------------------------------|
--------------------/  \----)(----------------------------|
--10---9---12--10--9/1012-12--9-10----------12-11---------|
-0---0---0---0---0--------------------------10-9--------)-|
-------------------------------------10-9---10-9-----4----|
--------------------------------------8-7-0------0--------|
 *   *   *   *   *                        *      * 


1:57

L
------------------------------------------------------------------|
------------------------------------------------------------------|
------------------------------------------------------------------|
------------------------------------------------------------------|
-0000-0-0000-0000--0000-0-00-00--0000-0-0000-0000-10-9---5-4--PH~~|
-0000-0-0000-0000--0000-0-00-00--0000-0-0000-0000--8-7-0-3-2-0-3--|
 **** * **** ****  **** * ** **  **** * **** ****      *     *
R
------------------------------------------------------------------|
-----------------------------------------------------------------)|
---------------------------------------------------------------2--|
------------------------------------------------------------------|
-0000-0-0000-0000--0000-0-00-00--0000-0-0000-0000-10-9---5-4--PH--|
-0000-0-0000-0000--0000-0-00-00--0000-0-0000-0000--8-7-0-3-2-0----|
 **** * **** ****  **** * ** **  **** * **** ****      *     *


L
------------------------------------------------------------------|
------------------------------------------------------------------|
------------------------------------------------------------------|
------------------------------------------------------------------|
-0000-0-0000-0000--0000-0-00-00--0000-0-0000-0000-10-9---5-4--PH~~|
-0000-0-0000-0000--0000-0-00-00--0000-0-0000-0000--8-7-0-3-2-0-3--|
 **** * **** ****  **** * ** **  **** * **** ****      *     *
R
------------------------------------------------------------------|
------------------------------------------------------------------|
------------------------------------------------------------------|
---------------------------------------------------------------PH-|
-0000-0-0000-0000--0000-0-00-00--0000-0-0000-0000-10-9---5-4---3--|
-0000-0-0000-0000--0000-0-00-00--0000-0-0000-0000--8-7-0-3-2-0----|
 **** * **** ****  **** * ** **  **** * **** ****      *     *

2:12
B
-------------------------------------------------------------------|
-------------------------------------------------------------------|
-------------------------------------------------------------------|
-------------------------------------------------------------------|
[0000-0]-0000-0000--0000-0-00-00--0000-0-0000-0000-10-9---5-4--PH~~|
[0000-0]-0000-0000--0000-0-00-00--0000-0-0000-0000--8-7-0-3-2-0-3--|
 **** *  **** ****  **** * ** **  **** * **** ****      *     *

-----------------------------------------------------------------|
-----------------------------------------------------------------|
-----------------------------------------------------------------|
-----------------------------------------------------------------|
-0000-0-0000-0000--0000-0-00-00--0000-0-0000-0000-10-9-----88-8|-|
-0000-0-0000-0000--0000-0-00-00--0000-0-0000-0000--8-7-0-0-66-6|-|
 **** * **** ****  **** * ** **  **** * **** ****      * *    



2:27

L
---_________________________-----_____________________________---|
--/                         \---/                             \--|
-10-7-0-9-5-0-9-0-10-0-9-0-7-0-5-9-10-7-0-9-5-0-9-0-10-0-9-0-7-0-|
-----------------------------------------------------------------|
-----------------------------------------------------------------|
-----------------------------------------------------------------|

R
---__________________________-----_______________________________--|
--/                          \---/                               \-|
1410-0-129-0-120-140-120-100-90-912-1410-0-129-0-120-140-120-100-90|
-------------------------------------------------------------------|
-------------------------------------------------------------------|
-------------------------------------------------------------------|

R RYTHM
------------------------------------------------------------------------|
------------------------------------------------------------------------|
-7-7-7-7-7-7-7-7-7-7-7-7-7-7-7-7----------------------------------------|
---------------------------------10-10-10-10-10-10-10-10-8-8-8-8-7-7-7-7|
------------------------------------------------------------------------|
------------------------------------------------------------------------|


L
---_____________________________-----_____________________________---|
--/                             \---/                             \--|
-5-9-10-7-0-9-5-0-9-0-10-0-9-0-7-0-5-9-10-7-0-9-5-0-9-0-10-0-9-0-7-0-|
---------------------------------------------------------------------|
---------------------------------------------------------------------|
---------------------------------------------------------------------|

R
---__________________________-----_______________________________--|
--/                          \---/                               \-|
1410-0-129-0-120-140-120-100-90-912-1410-0-129-0-120-140-120-100-90|
-------------------------------------------------------------------|
-------------------------------------------------------------------|
-------------------------------------------------------------------|

RYTHM
-----------------------------------------------------------------------|
-----------------------------------------------------------------------|
-----------------------------------------------------------------------|
-----------------------7-7-7-7-----------------7-7-7-7-10-10-10-10-----|
8-8-8-8-8-8-8-8-8-8-8-8--------7-7-7-7-7-7-7-7-------------------------|
-----------------------------------------------------------------------|




L
---_____________________________-----_____________________________---|
--/                             \---/                             \--|
-5-9-10-7-0-9-5-0-9-0-10-0-9-0-7-0-5-9-10-7-0-9-5-0-9-0-10-0-9-0-7-0-|
---------------------------------------------------------------------|
---------------------------------------------------------------------|
---------------------------------------------------------------------|

R
---__________________________-----_______________________________--|
--/                          \---/                               \-|
1410-0-129-0-120-140-120-100-90-912-1410-0-129-0-120-140-120-100-90|
-------------------------------------------------------------------|
-------------------------------------------------------------------|
-------------------------------------------------------------------|

RYTHM
------------------------------------------------------------------------|
------------------------------------------------------------------------|
-7-7-7-7-7-7-7-7-7-7-7-7-7-7-7-7----------------------------------------|
---------------------------------10-10-10-10-10-10-10-10-8-8-8-8-7-7-7-7|
------------------------------------------------------------------------|
------------------------------------------------------------------------|


L
---_____________________________----|
--/                             \---|
-5-9-10-7-0-9-5-0-9-0-10-0-9-0-7-0--|
------------------------------------|
------------------------------------|
------------------------------------|

R
---__________________________---|
--/                          \--|
1410-0-129-0-120-140-120-100-90-|
--------------------------------|
--------------------------------|
--------------------------------|

RYTHM
---------------------------------|
---------------------------------|
---------------------------------|
-------------------------7-7-7-7-|
-8-8-8-8-8-8-8-8-8-8-8-8---------|
---------------------------------|



2:39

L
---------------------------------------------------|
--------------------------------------13----13-15--|
--------------------12----12-14-12-14----15--------|
-14-12-14-15--14-15----15--------------------------|
---------------------------------------------------|
---------------------------------------------------|

R
-------------------------------------------------|
--------------------------------------17---17-18-|
--------------------15----15-17-15-17---17-------|
-17-15-17-19--17-19----19------------------------|
-------------------------------------------------|
-------------------------------------------------|

2:40
1
----------------------------------)(--------|
---------)(---------------------17----------|
---^---17----------17~-------17------17-14--|
-14-15-------14-15-----14-15----------------|
--------------------------------------------|
--------------------------------------------|

2
-------------------------------------------------|
-------------------------------------------------|
-------------------------------------------------|
-------------------------------------------------|
-8--8--8--8--8--8--8--8--8--8--8--8--5--5--3--3--|
-8--8--8--8--8--8--8--8--7--7--7--7--5--5--3--3--|


2:44
1
----------------------------------------------------------------|
---------)(-----------------------------------------------------|
---^---17----------17~----------14-15-17-15-14------------------|
-14-15-------14-15-----14-15-17---------------17-15-14-15-17-15-|
----------------------------------------------------------------|
----------------------------------------------------------------|

2
-------------------------------------------------|
-------------------------------------------------|
-------------------------------------------------|
-------------------------------------------------|
-0--0--0--0--0--0--0--0--5--5--5--5--5--5--5--5--|
-0--0--0--0--0--0--0--0--5--5--5--5--5--5--5--5--|


2:47
1
----------------------------------)(--------|
---------)(---------------------17----------|
---^---17----------17~-------17------17-14--|
-14-15-------14-15-----14-15----------------|
--------------------------------------------|
--------------------------------------------|

2
-------------------------------------------------|
-------------------------------------------------|
-------------------------------------------------|
-------------------------------------------------|
-8--8--8--8--8--8--8--8--8--8--8--8--5--5--3--3--|
-8--8--8--8--8--8--8--8--7--7--7--7--5--5--3--3--|


2:50
1
----------------------------------)(--|
---------)(------------------18-20----|
---^---17----------17~----------------|
-14-15-------14-15-----14-15----------|
--------------------------------------|
--------------------------------------|

2
-------------------------------------------------|
-------------------------------------------------|
-------------------------------------------------|
-------------------------------------------------|
-0--0--0--0--0--0--0--0--5--5--5--5--5--5--5--5--|
-0--0--0--0--0--0--0--0--5--5--5--5--5--5--5--5--|




2:55

B
-------------------------------------------------------------|
-------------------------------------------------------------|
-------------------------------------------------------------|
-------------------------------------------------------------|
-8888-----8888--7777---5555--3333--0000--0000------00000-10--|
-8888-----8888--7777---5555--3333--0000--0000------00000-10--|
 ****     ****  ****   ****  ****  ****  ****      ***** **


-------------------------------------------------------------|
-------------------------------------------------------------|
-------------------------------------------------------------|
-------------------------------------------------------------|
-8888-----8888--7777---5555--3333--0000--0000------00000-10--|
-8888-----8888--7777---5555--3333--0000--0000------00000-10--|
 ****     ****  ****   ****  ****  ****  ****      ***** **


3:07
L
---------------------------------------------------|
--------------------------------------13----13-15--|
--------------------12----12-14-12-14----15--------|
-14-12-14-15--14-15----15--------------------------|
---------------------------------------------------|
---------------------------------------------------|

R
-------------------------------------------------|
--------------------------------------17---17-18-|
--------------------15----15-17-15-17---17-------|
-17-15-17-19--17-19----19------------------------|
-------------------------------------------------|
-------------------------------------------------|


1
----------------------------------)(--------|
---------)(---------------------17----------|
---^---17----------17~-------17------17-14--|
-14-15-------14-15-----14-15----------------|
--------------------------------------------|
--------------------------------------------|

2
-------------------------------------------|
-------------------------------------------|
-------------------------------------------|
-------------------------------------------|
-8888----------8888---7777---5555---3333---|
-8888----------8888---7777---5555---3333---|
 ****          ****   ****   ****   ****  


1
----------------------------------------------------------------|
---------)(-----------------------------------------------------|
---^---17----------17~----------14-15-17-15-14------------------|
-14-15-------14-15-----14-15-17---------------17-15-14-15-17-15-|
----------------------------------------------------------------|
----------------------------------------------------------------|
2
---------------------------------------------------------------|
---------------------------------------------------------------|
---------------------------------------------------------------|
---------------------------------------------------------------|
-0000--0000----------------------------00000-10----------------|
-0000--0000----------------------------00000-10----------------|
 ****  ****                            *****

1
----------------------------------)(--------|
---------)(---------------------17----------|
---^---17----------17~-------17------17-14--|
-14-15-------14-15-----14-15----------------|
--------------------------------------------|
--------------------------------------------|

2
-------------------------------------------|
-------------------------------------------|
-------------------------------------------|
-------------------------------------------|
-8888----------8888---7777---5555---3333---|
-8888----------8888---7777---5555---3333---|
 ****          ****   ****   ****   ****  

1
----------------------------------)(--|
---------)(------------------18-20----|
---^---17----------17~----------------|
-14-15-------14-15-----14-15----------|
--------------------------------------|
--------------------------------------|

2
--------------------------------------|
--------------------------------------|
--------------------------------------|
--------------------------------------|
-0000--0000--------------00000-10-----|
-0000--0000--------------00000-10-----|
 ****  ****              *****  


1
---_____________________________-----_____________________________---|
--/                             \---/                             \--|
-5-9-10-7-0-9-5-0-9-0-10-0-9-0-7-0-5-9-10-7-0-9-5-0-9-0-10-0-9-0-7-0-|
---------------------------------------------------------------------|
---------------------------------------------------------------------|
---------------------------------------------------------------------|
CONT
---_____________________________-----_____________________________---|
--/                             \---/                             \--|
-5-9-10-7-0-9-5-0-9-0-10-0-9-0-7-0-5-9-10-7-0-9-5-0-9-0-10-0-9-0-7-0-|
---------------------------------------------------------------------|
---------------------------------------------------------------------|
---------------------------------------------------------------------|

2
-------------------------------------------------------------|
-------------------------------------------------------------|
-------------------------------------------------------------|
-------------------------------------------------------------|
-8888-----8888--7777---5555--3333--0000--0000------00000-10--|
-8888-----8888--7777---5555--3333--0000--0000------00000-10--|
 ****     ****  ****   ****  ****  ****  ****      ***** **

1
---_____________________________-----_____________________________---|
--/                             \---/                             \--|
-5-9-10-7-0-9-5-0-9-0-10-0-9-0-7-0-5-9-10-7-0-9-5-0-9-0-10-0-9-0-7-0-|
---------------------------------------------------------------------|
---------------------------------------------------------------------|
---------------------------------------------------------------------|
CONT
---_____________________________-----_____________________________---|
--/                             \---/                             \--|
-5-9-10-7-0-9-5-0-9-0-10-0-9-0-7-0-5-9-10-7-0-9-5-0-9-0-10-0-9-0-7-0-|
---------------------------------------------------------------------|
---------------------------------------------------------------------|
---------------------------------------------------------------------|

2
-------------------------------------------------------------|
-------------------------------------------------------------|
-------------------------------------------------------------|
-------------------------------------------------------------|
-8888-----8888--7777---5555--3333--0000--0000------00000-10--|
-8888-----8888--7777---5555--3333--0000--0000------00000-10--|
 ****     ****  ****   ****  ****  ****  ****      ***** **


W/LEFT HARMONY CONT. X2
R
---__________________________-----_______________________________--|
--/                          \---/                               \-|
1410-0-129-0-120-140-120-100-90-912-1410-0-129-0-120-140-120-100-90|
-------------------------------------------------------------------|
-------------------------------------------------------------------|
-------------------------------------------------------------------|

---__________________________-----_______________________________--|
--/                          \---/                               \-|
1410-0-129-0-120-140-120-100-90-912-1410-0-129-0-120-140-120-100-90|
-------------------------------------------------------------------|
-------------------------------------------------------------------|
-------------------------------------------------------------------|

2
-------------------------------------------------------------|
-------------------------------------------------------------|
-------------------------------------------------------------|
-------------------------------------------------------------|
-8888-----8888--7777---5555--3333--0000--0000------00000-10--|
-8888-----8888--7777---5555--3333--0000--0000------00000-10--|
 ****     ****  ****   ****  ****  ****  ****      ***** **

RYTHM@4:02 REPEATS
comments
print report bad tab
I want to post or [tab]
guest
You may want to rate the tab now too:
select rating
Please do not post tabs as comments. Select "correction" instead!