Oops, an error
Loading. Please wait.

Fleshkiller Tab

ver1
ver1

Whole song

Interactive

More versions @911Tabs.com
2,236 views 45 this week
no commentswrite comment
1 2 3 4 5
please rate
Autoscroll
+/-
esc
set tempo
stop
Contributor
Difficulty
Tuning
intermediate
C G C F A D
Hey! There's an official Ultimate Guitar app which is ideal
for learning songs when you're away from computer. Get the app
WARNING: You are trying to view
                                    content from Ultimate-Guitar.com
                                    in an unauthorized application,
                                    which is prohibited.

                                    Please use an official Ultimate
                                    Guitar Tabs application for iPhone,
                                    iPad or Android to access legitimate
                                    chords, guitar, bass, and drum tabs
                                    from Ultimate-Guitar.com database.

                                    Type "ultimate guitar tabs" in Apple
                                    App Store's or Android Market's
                                    search to find the application.
                                  Fleshkiller                                   


                                                                        Phinehas
Track 1



        PM PM     PM PM                        
     E  S  S   E  S  S   S   S   S  S   Q      
D||-------------------------------------------|
A||-------------------------------------------|
F||-------------------------------------------|
C||-------------------------------------------|
G||-------------------------------------------|
C||--0--0--0--12--0--0--12h-13p-12p-0h-12~----|


  PM PM PM PM    PM PM                    PM    
  S  S  S  S  E  S  S   S  S  S  S  S  S  S  S  
-----------------------------------------------|
-----------------------------------------------|
-----------------------------------------------|
-----------------------------------------------|
-----------------------12-13-12-10-12-10----10-|
--0--0--0--0--0--0--0--------------------12----|


     PM PM     PM PM                        
  E  S  S   E  S  S   S   S   S  S   Q      
-------------------------------------------|
-------------------------------------------|
-------------------------------------------|
-------------------------------------------|
-------------------------------------------|
--0--0--0--12--0--0--12h-13p-12p-0h-13~----|


   PM PMPM PM PM PM PM PM  PM PMPM PM PM PM  PM PM 
   S  S S  S  S  S  S  S   S  S S  S  S  S   S  S  
--------------------------------------------------|
--------------------------------------------------|
--------------------------------------------------|
--------------------7--7--10-10-8--8--7--7--10-10-|
--10-10-5--5--9--9--------------------------------|
--------------------------------------------------|


     PM PM     PM PM                        
  E  S  S   E  S  S   S   S   S  S   Q      
-------------------------------------------|
-------------------------------------------|
-------------------------------------------|
-------------------------------------------|
-------------------------------------------|
--0--0--0--12--0--0--12h-13p-12p-0h-12~----|


  PM PM PM PM    PM PM                    PM    
  S  S  S  S  E  S  S   S  S  S  S  S  S  S  S  
-----------------------------------------------|
-----------------------------------------------|
-----------------------------------------------|
-----------------------------------------------|
-----------------------12-13-12-10-12-10----10-|
--0--0--0--0--0--0--0--------------------12----|


     PM PM     PM PM                        
  E  S  S   E  S  S   S   S   S  S   Q      
-------------------------------------------|
-------------------------------------------|
-------------------------------------------|
-------------------------------------------|
-------------------------------------------|
--0--0--0--12--0--0--12h-13p-12p-0h-13~----|


                                       W       
   S  S  S  S  S  S  S  S  S  S  S  S  Q       
---------------------------------------------||
---------------------------------------------||
--11----------12----------14----------14----*||
-----13-12-13----16-13-16----17-16-17-------*||
---------------------------------------------||
---------------------------------------------||


   S  S  S  S  S  S  S  S  S  S  S  S  S  S  S  S  
--------------------------------------------------|
--------------------------------------------------|
--11----------12----------14----------------------|
-----13-12-13----16-13-16----17-16-17-------------|
--------------------------------------10----------|
-----------------------------------------13-12-10-|


   E  S S S S S S S S S S  S  S  S  S  
--------------------------------------|
--------------------------------------|
--------------------------------------|
--------------------------------------|
--------------------------10----------|
--12--0-0-0-0-0-0-0-0-0-0----13-12-10-|


       PM PM                                     
   E   S  S  S  S  S  S  S  S  S  S  S  S  S  S  
------------------------------------------------|
------------------------------------------------|
------------------------------------------------|
------------------------------------------------|
------------10----------12-10-------10----------|
--12--12-12----13-12-10-------13-12----13-12-10-|


   E  S S S S S S S S S S  S  S  S  S  
--------------------------------------|
--------------------------------------|
--------------------------------------|
--------------------------------------|
--------------------------10----------|
--12--0-0-0-0-0-0-0-0-0-0----13-12-10-|


       PM PM                                     
   E   S  S  S  S  S  S  S  S  S  S  S  S  S  S  
------------------------------------------------|
------------------------------------------------|
------------------------------------------------|
------------------------------------------------|
------------10----------12-10-------10----------|
--12--12-12----13-12-10-------13-12----13-12-10-|


   E  S S S S S S S S S S  S  S  S  S  
--------------------------------------|
--------------------------------------|
--------------------------------------|
--------------------------------------|
--------------------------10----------|
--12--0-0-0-0-0-0-0-0-0-0----13-12-10-|


       PM PM                                     
   E   S  S  S  S  S  S  S  S  S  S  S  S  S  S  
------------------------------------------------|
------------------------------------------------|
------------------------------------------------|
------------------------------------------------|
------------10----------12-10-------10----------|
--12--12-12----13-12-10-------13-12----13-12-10-|


   E  S S S S S S S S S S  S  S  S  S  
--------------------------------------|
--------------------------------------|
--------------------------------------|
--------------------------------------|
--------------------------10----------|
--12--0-0-0-0-0-0-0-0-0-0----13-12-10-|


       PM PM                                     
   E   S  S  S  S  S  S  S  S  S  S  S  S  S  S  
------------------------------------------------|
------------------------------------------------|
------------------------------------------------|
------------------------------------------------|
------------10----------12-10-------10----------|
--12--12-12----13-12-10-------13-12----13-12-10-|


   S  S  S  S  S  S  S  S  S  S  S  S  S  S  S  S  
--------------------------------------------------|
--------------------------------------------------|
--------------------------------------------------|
--------------------------------------------------|
--13-13-13-13-13-13-13-13-13-13-13-13-13-13-13-13-|
--------------------------------------------------|


   S  S  S  S  S  S  S  S  S  S  S  S  S  S  S  S  
--------------------------------------------------|
--------------------------------------------------|
--------------------------------------------------|
--------------------------------------------------|
--10-10-10-10-10-10-10-10-12-12-12-12-13-13-13-13-|
--------------------------------------------------|


   S  S  S  S  S  S  S  S  S  S  S  S  S  S  S  S  
--------------------------------------------------|
--------------------------------------------------|
--------------------------------------------------|
--------------------------------------------------|
--12-12-12-12-12-12-12-12-12-12-12-12-12-12-12-12-|
--------------------------------------------------|


  S S S S S S S S  S  S  S  S  S  S  S  S  
------------------------------------------|
------------------------------------------|
------------------------------------------|
------------------------------------------|
--8-8-8-8-8-8-8-8-10-10-10-10-12-12-12-12-|
------------------------------------------|


   S  S  S  S  S  S  S  S  S  S  S  S  S  S  S  S  
--------------------------------------------------|
--------------------------------------------------|
--------------------------------------------------|
--------------------------------------------------|
--13-13-13-13-13-13-13-13-13-13-13-13-13-13-13-13-|
--------------------------------------------------|


   S  S  S  S  S  S  S  S  S  S  S  S  S  S  S  S  
--------------------------------------------------|
--------------------------------------------------|
--------------------------------------------------|
--------------------------------------------------|
--10-10-10-10-10-10-10-10-12-12-12-12-13-13-13-13-|
--------------------------------------------------|


   S  S  S  S  S  S  S  S  S  S  S  S  S  S  S  S  
--------------------------------------------------|
--------------------------------------------------|
--------------------------------------------------|
--12-12-12-12-12-12-12-12-12-12-12-12-12-12-12-12-|
--------------------------------------------------|
--------------------------------------------------|


   S  S  S  S  S  S  S  S  S  S  S  S  S  S  S  S  
--------------------------------------------------|
--------------------------------------------------|
--------------------------------------------------|
--10-10-10-10-10-10-10-10-10-10-10-10-10-10-10-10-|
--------------------------------------------------|
--------------------------------------------------|


   E   E   E   E   E   E   E   E      E   E   E   E   E   E   E   E   
--15--------------15--------------|--17--------------17--------------|
------18--------------18----------|------18--------------18----------|
----------15--------------15------|----------17--------------17------|
--------------19--------------19--|--------------20--------------20--|
----------------------------------|----------------------------------|
----------------------------------|----------------------------------|


   E   E   E   E   E   E   E   E      E   E   E   E   E   E   E   E   
--18--------------18--------------|----------------------------------|
------18--------------18----------|--------------------------16--18--|
----------19--------------19------|----------17--19--17--19----------|
--------------20--------------20--|--19--20--------------------------|
----------------------------------|----------------------------------|
----------------------------------|----------------------------------|


   E   E   E   E   E   E   E   E      E   E   E   E   E   E   E   E   
--15--------------15--------------|--17--------------17--------------|
------18--------------18----------|------18--------------18----------|
----------15--------------15------|----------17--------------17------|
--------------19--------------19--|--------------20--------------20--|
----------------------------------|----------------------------------|
----------------------------------|----------------------------------|


   E   E   E   E   E   E   E   E      E   E   E   E   E   E   E   E   
--18--------------18--------------|----------------------------------|
------18--------------18----------|--------------------------16--18--|
----------19--------------19------|----------17--19--17--19----------|
--------------20--------------20--|--19--20--------------------------|
----------------------------------|----------------------------------|
----------------------------------|----------------------------------|


   E   E   E   E   E   E   E   E      E   E   E   E   E   E   E   E   
--15--------------15--------------|--17--------------17--------------|
------18--------------18----------|------18--------------18----------|
----------15--------------15------|----------17--------------17------|
--------------19--------------19--|--------------20--------------20--|
----------------------------------|----------------------------------|
----------------------------------|----------------------------------|


   E   E   E   E   E   E   E   E      E   E   E   E   E   E   E   E   
--18--------------18--------------|----------------------------------|
------18--------------18----------|--------------------------16--18--|
----------19--------------19------|----------17--19--17--19----------|
--------------20--------------20--|--19--20--------------------------|
----------------------------------|----------------------------------|
----------------------------------|----------------------------------|


   E   E   E   E   E   E   E   E      E   E   E   E   E   E   E   E   
--15--------------15--------------|--17--------------17--------------|
------18--------------18----------|------18--------------18----------|
----------15--------------15------|----------17--------------17------|
--------------19--------------19--|--------------20--------------20--|
----------------------------------|----------------------------------|
----------------------------------|----------------------------------|


   E   E   E   E   E   E   E   E   
--18--------------18--------------|
------18--------------18----------|
----------19--------------19------|
--------------20--------------20--|
----------------------------------|
----------------------------------|


   PM PM PM PM           PM PM PM PM              
   S  S  S  S  S  S  S S S  S  S  S   S  S  S  S  
-------------------------------------------------|
-------------------------------------------------|
-------------------------------------------------|
-------------------------------------------------|
--------------13-12-10-9-------------10----------|
--12-12-12-12------------0--0--0--0-----13-12-10-|


   E  S S S S S S S S S S  S  S  S  S  
--------------------------------------|
--------------------------------------|
--------------------------------------|
--------------------------------------|
--------------------------10----------|
--12--0-0-0-0-0-0-0-0-0-0----13-12-10-|


       PM PM                                     
   E   S  S  S  S  S  S  S  S  S  S  S  S  S  S  
------------------------------------------------|
------------------------------------------------|
------------------------------------------------|
------------------------------------------------|
------------10----------12-10-------10----------|
--12--12-12----13-12-10-------13-12----13-12-10-|


   E  S S S S S S S S S S  S  S  S  S  
--------------------------------------|
--------------------------------------|
--------------------------------------|
--------------------------------------|
--------------------------10----------|
--12--0-0-0-0-0-0-0-0-0-0----13-12-10-|


       PM PM                                     
   E   S  S  S  S  S  S  S  S  S  S  S  S  S  S  
------------------------------------------------|
------------------------------------------------|
------------------------------------------------|
------------------------------------------------|
------------10----------12-10-------10----------|
--12--12-12----13-12-10-------13-12----13-12-10-|


   E  S S S S S S S S S S  S  S  S  S  
--------------------------------------|
--------------------------------------|
--------------------------------------|
--------------------------------------|
--------------------------10----------|
--12--0-0-0-0-0-0-0-0-0-0----13-12-10-|


       PM PM                                     
   E   S  S  S  S  S  S  S  S  S  S  S  S  S  S  
------------------------------------------------|
------------------------------------------------|
------------------------------------------------|
------------------------------------------------|
------------10----------12-10-------10----------|
--12--12-12----13-12-10-------13-12----13-12-10-|


   E  S S S S S S S S S S  S  S  S  S  
--------------------------------------|
--------------------------------------|
--------------------------------------|
--------------------------------------|
--------------------------10----------|
--12--0-0-0-0-0-0-0-0-0-0----13-12-10-|


       PM PM                                     
   E   S  S  S  S  S  S  S  S  S  S  S  S  S  S  
------------------------------------------------|
------------------------------------------------|
------------------------------------------------|
------------------------------------------------|
------------10----------12-10-------10----------|
--12--12-12----13-12-10-------13-12----13-12-10-|


     PM PM PM      PM             PM PM PM                             
  E  S  S  S  Q    S  S Q    S    S  S  S  E  E  S  S S S  S S S  S S  
-------------------------------|--------------------------------------|
-------------------------------|--------------------------------------|
-------------------------------|--------------------------------------|
-------------------------------|--------------------------------------|
-------------------------------|--------------------------------------|
--0--0--0--0--0----0--0--------|--0--0--0--0--0--1h-3-0-1p-0-0-1p-0-0-|


     PM PM PM      PM             PM PM PM PM      PM  PM PM PM PM PM       
  E  S  S  S  Q    S  S Q    S    S  S  S  S  Q    S   S  S  S  S  S  S  S  
-------------------------------|-------------------------------------------|
-------------------------------|-------------------------------------------|
-------------------------------|-------------------------------------------|
-------------------------------|-------------------------------------------|
-------------------------------|-------------------------------------10-12-|
--0--0--0--0--0----0--0--------|--0--0--0--0--0----0--12-14-15-14-15-------|


     PM PM PM      PM   PH          PM PM PM                             
  E  S  S  S  Q    S    Q     E     S  S  S  E  E  S  S S S  S S S  S S  
---------------------------------|--------------------------------------|
---------------------------------|--------------------------------------|
---------------------------------|--------------------------------------|
---------------------------------|--------------------------------------|
---------------------------------|--------------------------------------|
--0--0--0--0--0----0--<>3b-------|--0--0--0--0--0--1h-3-0-1p-0-0-1p-0-0-|


     PM PM PM      PM             PM PM PM PM      PM  PM PM PM PM PM       
  E  S  S  S  Q    S  S Q    S    S  S  S  S  Q    S   S  S  S  S  S  S  S  
-------------------------------|-------------------------------------------|
-------------------------------|-------------------------------------------|
-------------------------------|-------------------------------------------|
-------------------------------|-------------------------------------------|
-------------------------------|-------------------------------------10-12-|
--0--0--0--0--0----0--0--------|--0--0--0--0--0----0--12-14-15-14-15-------|


   S  S  S  S  S  S  S  S  S  S  S  S  S  S  S  S  
--------------------------------------------------|
--------------------------------------------------|
--------------------------------------------------|
--------------------------------------------------|
--13-13-13-13-13-13-13-13-13-13-13-13-13-13-13-13-|
--------------------------------------------------|


   S  S  S  S  S  S  S  S  S  S  S  S  S  S  S  S  
--------------------------------------------------|
--------------------------------------------------|
--------------------------------------------------|
--------------------------------------------------|
--10-10-10-10-10-10-10-10-12-12-12-12-13-13-13-13-|
--------------------------------------------------|


   S  S  S  S  S  S  S  S  S  S  S  S  S  S  S  S  
--------------------------------------------------|
--------------------------------------------------|
--------------------------------------------------|
--------------------------------------------------|
--12-12-12-12-12-12-12-12-12-12-12-12-12-12-12-12-|
--------------------------------------------------|


  S S S S S S S S  S  S  S  S  S  S  S  S  
------------------------------------------|
------------------------------------------|
------------------------------------------|
------------------------------------------|
--8-8-8-8-8-8-8-8-10-10-10-10-12-12-12-12-|
------------------------------------------|


   S  S  S  S  S  S  S  S  S  S  S  S  S  S  S  S  
--------------------------------------------------|
--------------------------------------------------|
--------------------------------------------------|
--------------------------------------------------|
--13-13-13-13-13-13-13-13-13-13-13-13-13-13-13-13-|
--------------------------------------------------|


   S  S  S  S  S  S  S  S  S  S  S  S  S  S  S  S  
--------------------------------------------------|
--------------------------------------------------|
--------------------------------------------------|
--------------------------------------------------|
--10-10-10-10-10-10-10-10-12-12-12-12-13-13-13-13-|
--------------------------------------------------|


   S  S  S  S  S  S  S  S  S  S  S  S  S  S  S  S  
--------------------------------------------------|
--------------------------------------------------|
--------------------------------------------------|
--12-12-12-12-12-12-12-12-12-12-12-12-12-12-12-12-|
--------------------------------------------------|
--------------------------------------------------|


   S  S  S  S  S  S  S  S  S  S  S  S  S  S  S  S  
--------------------------------------------------|
--------------------------------------------------|
--------------------------------------------------|
--10-10-10-10-10-10-10-10-10-10-10-10-10-10-10-10-|
--------------------------------------------------|
--------------------------------------------------|


   E   E   E   E   E   E   E   E      E   E   E   E   E   E   E   E   
--15--------------15--------------|--17--------------17--------------|
------18--------------18----------|------18--------------18----------|
----------15--------------15------|----------17--------------17------|
--------------19--------------19--|--------------20--------------20--|
----------------------------------|----------------------------------|
----------------------------------|----------------------------------|


   E   E   E   E   E   E   E   E      E   E   E   E   E   E   E   E   
--18--------------18--------------|----------------------------------|
------18--------------18----------|--------------------------16--18--|
----------19--------------19------|----------17--19--17--19----------|
--------------20--------------20--|--19--20--------------------------|
----------------------------------|----------------------------------|
----------------------------------|----------------------------------|


   E   E   E   E   E   E   E   E      E   E   E   E   E   E   E   E   
--15--------------15--------------|--17--------------17--------------|
------18--------------18----------|------18--------------18----------|
----------15--------------15------|----------17--------------17------|
--------------19--------------19--|--------------20--------------20--|
----------------------------------|----------------------------------|
----------------------------------|----------------------------------|


   E   E   E   E   E   E   E   E      E   E   E   E   E   E   E   E   
--18--------------18--------------|----------------------------------|
------18--------------18----------|--------------------------16--18--|
----------19--------------19------|----------17--19--17--19----------|
--------------20--------------20--|--19--20--------------------------|
----------------------------------|----------------------------------|
----------------------------------|----------------------------------|


   E   E   E   E   E   E   E   E      E   E   E   E   E   E   E   E   
--15--------------15--------------|--17--------------17--------------|
------18--------------18----------|------18--------------18----------|
----------15--------------15------|----------17--------------17------|
--------------19--------------19--|--------------20--------------20--|
----------------------------------|----------------------------------|
----------------------------------|----------------------------------|


   E   E   E   E   E   E   E   E      E   E   E   E   E   E   E   E   
--18--------------18--------------|----------------------------------|
------18--------------18----------|--------------------------16--18--|
----------19--------------19------|----------17--19--17--19----------|
--------------20--------------20--|--19--20--------------------------|
----------------------------------|----------------------------------|
----------------------------------|----------------------------------|


   E   E   E   E   E   E   E   E      E   E   E   E   E   E   E   E   
--15--------------15--------------|--17--------------17--------------|
------18--------------18----------|------18--------------18----------|
----------15--------------15------|----------17--------------17------|
--------------19--------------19--|--------------20--------------20--|
----------------------------------|----------------------------------|
----------------------------------|----------------------------------|


   E   E   E   E   E   E   E   E   
--18--------------18--------------|
------18--------------18----------|
----------19--------------19------|
--------------20--------------20--|
----------------------------------|
----------------------------------|


   PM PM PM PM            PM PM PM PM            
   S  S  S  S  S  S  S S  S  S  S  S  S  S  S S  
------------------------------------------------|
------------------------------------------------|
------------------------------------------------|
------------------------------------------------|
--------------13-12-10-9-------------13-12-10-9-|
--12-12-12-12------------12-12-12-12------------|


     PM PM     PM PM                        
  E  S  S   E  S  S   S   S   S  S   Q      
-------------------------------------------|
-------------------------------------------|
-------------------------------------------|
-------------------------------------------|
-------------------------------------------|
--0--0--0--12--0--0--12h-13p-12p-0h-12~----|


  PM PM PM PM    PM PM                    PM    
  S  S  S  S  E  S  S   S  S  S  S  S  S  S  S  
-----------------------------------------------|
-----------------------------------------------|
-----------------------------------------------|
-----------------------------------------------|
-----------------------12-13-12-10-12-10----10-|
--0--0--0--0--0--0--0--------------------12----|


     PM PM     PM PM                        
  E  S  S   E  S  S   S   S   S  S   Q      
-------------------------------------------|
-------------------------------------------|
-------------------------------------------|
-------------------------------------------|
-------------------------------------------|
--0--0--0--12--0--0--12h-13p-12p-0h-13~----|


   PM PMPM PM PM PM PM PM  PM PMPM PM PM PM  PM PM 
   S  S S  S  S  S  S  S   S  S S  S  S  S   S  S  
--------------------------------------------------|
--------------------------------------------------|
--------------------------------------------------|
--------------------7--7--10-10-8--8--7--7--10-10-|
--10-10-5--5--9--9--------------------------------|
--------------------------------------------------|


     PM PM     PM PM                        
  E  S  S   E  S  S   S   S   S  S   Q      
-------------------------------------------|
-------------------------------------------|
-------------------------------------------|
-------------------------------------------|
-------------------------------------------|
--0--0--0--12--0--0--12h-13p-12p-0h-12~----|


  PM PM PM PM    PM PM                    PM    
  S  S  S  S  E  S  S   S  S  S  S  S  S  S  S  
-----------------------------------------------|
-----------------------------------------------|
-----------------------------------------------|
-----------------------------------------------|
-----------------------12-13-12-10-12-10----10-|
--0--0--0--0--0--0--0--------------------12----|


     PM PM     PM PM                                             
  E  S  S   E  S  S   S   S   S  S   Q         W                 
-------------------------------------------|--------------------|
-------------------------------------------|--------------------|
-------------------------------------------|--------------------|
-------------------------------------------|--------------------|
-------------------------------------------|--------------------|
--0--0--0--12--0--0--12h-13p-12p-0h-13~----|---L----------------|


  PM PM PM                 PM PM PM PM PM    PM PM           
  E  S  S  H.              S  S  S  S  S  E  S  S  Q    E.   
------------------------|-----------------------------------|
------------------------|-----------------------------------|
------------------------|-----------------------------------|
------------------------|-----------------------------------|
--0--0--0---------------|--0--0--0--0--0--L--0--0-----------|
--0--0--0---------------|--0--0--0--0--0--L--0--0-----------|


  PM PM PM PM PM   PM PM   PM PM          
  T  T  T  T  E  S S  S  S S  S  Q    E   
-----------------------------------------|
-----------------------------------------|
-----------------------------------------|
-----------------------------------------|
--0--0--0--0--0----0--0----0--0----------|
--0--0--0--0--0----0--0----0--0----------|


   PM PMPM PM PM PM PM PM  PM PMPM PM PM PM  PM PM   PM PM PM               
   S  S S  S  S  S  S  S   S  S S  S  S  S   S  S    E  S  S  H.            
--------------------------------------------------|------------------------|
--------------------------------------------------|------------------------|
--------------------------------------------------|------------------------|
--------------------7--7--10-10-8--8--7--7--10-10-|------------------------|
--10-10-5--5--9--9--------------------------------|--0--0--0---------------|
--------------------------------------------------|--0--0--0---------------|


  PM PM PM PM PM    PM PM             PM PM PM PM PM   PM PM   PM PM          
  S  S  S  S  S  E  S  S  Q    E.     T  T  T  T  E  S S  S  S S  S  Q    E   
-----------------------------------|-----------------------------------------|
-----------------------------------|-----------------------------------------|
-----------------------------------|-----------------------------------------|
-----------------------------------|-----------------------------------------|
--0--0--0--0--0--L--0--0-----------|--0--0--0--0--0----0--0----0--0----------|
--0--0--0--0--0--L--0--0-----------|--0--0--0--0--0----0--0----0--0----------|


                                       W     
   S  S  S  S  S  S  S  S  S  S  S  S  Q     
--------------------------------------------|
--------------------------------------------|
--11----------12----------14----------14----|
-----13-12-13----16-13-16----17-16-17-------|
--------------------------------------------|
--------------------------------------------|


   W                    W                
   Q    E   S   S   S   Q     S   S   S  
----------------------------------------|
--15----L--13h-15p-13S-11----11h-13p-11-|
----------------------------------------|
----------------------------------------|
----------------------------------------|
----------------------------------------|


                              W         
   S  S  S   S   S   S  S  S  H         
---------------------------------------|
---------------------------------------|
--15-14-12s-11h-12p-11-----------------|
-----------------------13-12-13--------|
---------------------------------------|
---------------------------------------|


   S  S  S  S  S  S  S  S  S  S  S  S  S  S  S  S  
-----------------------------------------------11-|
-----------------------------13-------11-13-15----|
-----11-12-14-12-11-12-14-15----15-14-------------|
--13----------------------------------------------|
--------------------------------------------------|
--------------------------------------------------|


                           W                                           
   S  S  S  S  S  S  S  S  H            H           E  E.   S   S   S  
--------14----14--------------------|----------------------14h-15h-17-|
--15-13----13----13-15-16-15--------|--13br---------L-----------------|
------------------------------------|---------------------------------|
------------------------------------|---------------------------------|
------------------------------------|---------------------------------|
------------------------------------|---------------------------------|


   T                     T                     T              
   S  S   S   S   S   S  S  S   S   S   S   S  S  S   S   S   
--18-17p-15p-14h-15h-17-22-17p-15p-14h-15h-17-18-17p-15p-14h-|
-------------------------------------------------------------|
-------------------------------------------------------------|
-------------------------------------------------------------|
-------------------------------------------------------------|
-------------------------------------------------------------|


          T                     T                     T      
   S   S  S  S   S   S   S   S  S  S   S   S   S   S  S  S   
--15h-17-22-17p-15p-14h-15h-17-18-17p-15p-14h-15h-17-22-17h-|
------------------------------------------------------------|
------------------------------------------------------------|
------------------------------------------------------------|
------------------------------------------------------------|
------------------------------------------------------------|


                  T                     W       
   S   S   S   S  S  S   S   S   S   S  Q.      
--15p-14h-15h-17-18-17p-15p-14h-15h-17---------|
---------------------------------------16------|
-----------------------------------------------|
-----------------------------------------------|
-----------------------------------------------|
-----------------------------------------------|


                                       W                                        
   S  S  S  S  S  S  S  S  S  S  S  S  Q        E   E   E   E   E   E   E   E   
--------------------------------------------|--15--------------15--------------|
--------------------------------------------|------18--------------18----------|
--11----------12----------14----------14----|----------15--------------15------|
-----13-12-13----16-13-16----17-16-17-------|--------------19--------------19--|
--------------------------------------------|----------------------------------|
--------------------------------------------|----------------------------------|


   E   E   E   E   E   E   E   E      E   E   E   E   E   E   E   E   
--17--------------17--------------|--18--------------18--------------|
------18--------------18----------|------18--------------18----------|
----------17--------------17------|----------19--------------19------|
--------------20--------------20--|--------------20--------------20--|
----------------------------------|----------------------------------|
----------------------------------|----------------------------------|


   E   E   E   E   E   E   E   E      E   E   E   E   E   E   E   E   
----------------------------------|--15--------------15--------------|
--------------------------16--18--|------18--------------18----------|
----------17--19--17--19----------|----------15--------------15------|
--19--20--------------------------|--------------19--------------19--|
----------------------------------|----------------------------------|
----------------------------------|----------------------------------|


   E   E   E   E   E   E   E   E      E   E   E   E   E   E   E   E   
--17--------------17--------------|--18--------------18--------------|
------18--------------18----------|------18--------------18----------|
----------17--------------17------|----------19--------------19------|
--------------20--------------20--|--------------20--------------20--|
----------------------------------|----------------------------------|
----------------------------------|----------------------------------|


   E   E   E   E   E   E   E   E      E   E   E   E   E   E   E   E   
----------------------------------|--15--------------15--------------|
--------------------------16--18--|------18--------------18----------|
----------17--19--17--19----------|----------15--------------15------|
--19--20--------------------------|--------------19--------------19--|
----------------------------------|----------------------------------|
----------------------------------|----------------------------------|


   E   E   E   E   E   E   E   E      E   E   E   E   E   E   E   E   
--17--------------17--------------|--18--------------18--------------|
------18--------------18----------|------18--------------18----------|
----------17--------------17------|----------19--------------19------|
--------------20--------------20--|--------------20--------------20--|
----------------------------------|----------------------------------|
----------------------------------|----------------------------------|


   E   E   E   E   E   E   E   E      E   E   E   E   E   E   E   E   
----------------------------------|--15--------------15--------------|
--------------------------16--18--|------18--------------18----------|
----------17--19--17--19----------|----------15--------------15------|
--19--20--------------------------|--------------19--------------19--|
----------------------------------|----------------------------------|
----------------------------------|----------------------------------|


   E   E   E   E   E   E   E   E      E   E   E   E   E   E   E   E   
--17--------------17--------------|--18--------------18--------------|
------18--------------18----------|------18--------------18----------|
----------17--------------17------|----------19--------------19------|
--------------20--------------20--|--------------20--------------20--|
----------------------------------|----------------------------------|
----------------------------------|----------------------------------|


   E   E   E   E   E   E   E   E      E   E   E   E   E   E   E   E   
--15--------------15--------------|--15--------------15--------------|
------18--------------18----------|------18--------------18----------|
----------15--------------15------|----------15--------------15------|
--------------19--------------19--|--------------19--------------19--|
----------------------------------|----------------------------------|
----------------------------------|----------------------------------|


   E   E   E   E   E   E   E   E      E   E   E   E   E   E   E   E   
--15--------------15--------------|--15--------------15--------------|
------18--------------18----------|------18--------------18----------|
----------15--------------15------|----------15--------------15------|
--------------19--------------19--|--------------19--------------19--|
----------------------------------|----------------------------------|
----------------------------------|----------------------------------|


   E   E   E   E   E   E   E   E    
--15--------------15--------------||
------18--------------18----------||
----------15--------------15------||
--------------19--------------19--||
----------------------------------||
----------------------------------||




Duration Legend
---------------
W - whole
H - half
Q - quarter
E - 8th
S - 16th
T - 32nd
X - 64th
. - note dotted
|-n-|  - n-tuplets


Tablature Legend
----------------
L - tied note
x - dead note
g - grace note
(n) - ghost note
> - accentuded note
NH - natural harmonic
AH - artificial harmonic
TH - tapped harmonic
SH - semi harmonic
PH - pitch harmonic
h - hammer on
p - pull off
b - bend
br - bendRelease
pb - preBend
pbr - preBendRelease
brb - bendReleaseBend
\n/ - tremolo bar dip
\n - tremolo bar dive
-/n - tremolo bar Release up
/n\ - tremolo bar inverted dip
/n - tremolo bar return
-\n - tremolo bar Release down
S - shift slide
s - legato slide
/ -  slide into from below or out of upwards
\ -  slide into from above or out of downwards
~ - vibrato
W - wide vibrato
tr - trill
TP - tremolo picking
T - tapping
S - slap
P - pop
< - fade in
^ - brush up
v - brush down
comments
We did not receive enough feedback on this tab! Please rate:
print report bad tab
1 2 3 4 5
I want to post or [tab]
guest
You may want to rate the tab now too:
select rating
Please do not post tabs as comments. Select "correction" instead!