Oops, an error
Loading. Please wait.

If I Ever Feel Better Ukulele Chords

267 views 9 this week
no commentswrite comment
1 2 3 4 5
please rate
add to favorites launch autoscroll
font size
0
reset
transpose
0
reset
highlight chords
display chords
Autoscroll
+/-
esc
set tempo
stop
WARNING: You are trying to view
                                    content from Ultimate-Guitar.com
                                    in an unauthorized application,
                                    which is prohibited.

                                    Please use an official Ultimate
                                    Guitar Tabs application for iPhone,
                                    iPad or Android to access legitimate
                                    chords, guitar, bass, and drum tabs
                                    from Ultimate-Guitar.com database.

                                    Type "ultimate guitar tabs" in Apple
                                    App Store's or Android Market's
                                    search to find the application.
PHOENIX
IF I EVER FEEL BETTER
By JoFFraY “Disco Rock”


INTRO								
They say an end can be a start, Feels like I've been buried yet still alive  
G-------------------------------------------------------------------------|
D-------------------------------------------------------------------------|
A—5---5-------------------------4---4-------------------------------------|
E-------------------------------------------------------------------------|

It's like a bad day that never ends, I feel the chaos around me
G-------------------------------------------------------------------------|
D-------------------------------------------------------------------------|
A—7---7------------------------------5---5--------------------------------|
E-------------------------------------------------------------------------|

A thing I don't try to deny, I'd better learn to accept that
G-------------------------------------------------------------------------|
D-------------------------------------------------------------------------|
A—7---7---------------------2---------------------------------------------|
E-------------------------------------------------------------------------|

There are things in my life that I can't control
G-------------------------------------------------------------------------|
D-------------------------------------------------------------------------|
A—9-9--------8-8---------7-7----------s12---------------------------------|
E-------------------------------------------------------------------------|

COUPLET (x4)
They say love ain't nothing but a sore I don't even know what love is
G-------------------------------------------------------------------------|
D-------------------------------------------------------------------------|
A--5-5---------------------------------4-5-5---7-7------9-9-7-------------|
E--------------0-0------5-5-5----------------------------------------s9---|

Too many tears have had to fall Don't you know I'm so tired of it all
I have known terror dizzy spells Finding out the secrets words won't tell
Whatever it is it can't be named There's a part of my world that' s fading away
You know I don't want to be clever To be brilliant or superior
True like ice, true like fire Now I know that a breeze can blow me away
Now I know there's much more dignity In defeat than in the brightest victory
I'm losing my balance on the tight rope Tell me please, tell me please, tell me please...
                  
CHORUS (x2)
If I ever feel better Remind me to spend some good time with you
G---------------------------------------------------------11----9---11----|
D-------------------------------------------------------------------------|
A----------------------4-4------5-5-------7-7------------9----7----9---s12|
E--2-2----0-0----5-5------------------------------------------------------|

You can give me your number When it's all over I'll let you know

BRIDGE (IDEM INTRO)
Hang on to the good days I can lean on my friends
They help me going through hard times
But I'm feeding the enemy I'm in league with the foe
Blame me for what's happening I can't try, I can't try, I can't try...

COUPLET (x4)
No one knows the hard times I went through If happiness came I miss the call
The stormy days ain't over I've tried and lost know I think that I pay the cost
Now I've watched all my castles fall They were made of dust, after al
Someday all this mess will make me laugh I can't wait, I can't wait, I can't wait...

CHORUS (X2)
If I ever feel better Remind me to spend some good time with you
You can give me your number When it's all over I'll let you know

BRIDGE (IDEM INTRO)
It's like somebody took my place I ain't even playing my own game
The rules have changed well I didn't know There are things in my life I can't control
I feel the chaos around me A thing I don't try to deny
I'd better learn to accept that There's a part of my life that will go away

COUPLET (x4)
Dark is the night, cold is the ground In the circular solitude of my heart
As one who strives a hill to climb I am sure I'll come through I don't know how
They say an end can be a start Feels like I've been buried yet I'm still alive
I'm losing my balance on the tight rope Tell me please, tell me please, tell me please...

CHORUS (x3)
If I ever feel better Remind me to spend some good time with you
You can give me your number When it's all over I'll let you know


JoFFraY “Disco Rock”
comments
We did not receive enough feedback on this tab! Please rate:
1 2 3 4 5
I want to post or [tab]
guest
You may want to rate the tab now too:
select rating
Please do not post tabs as comments. Select "correction" instead!