Oops, an error
Loading. Please wait.

Lasso Tab

ver3
ver3

Whole song

More versions @911Tabs.com
7,605 views 21 this week
no commentswrite comment
1 2 3 4 5
accurate
x 2
Autoscroll
+/-
esc
set tempo
stop
Contributor
Difficulty
intermediate
WARNING: You are trying to view
                                    content from Ultimate-Guitar.com
                                    in an unauthorized application,
                                    which is prohibited.

                                    Please use an official Ultimate
                                    Guitar Tabs application for iPhone,
                                    iPad or Android to access legitimate
                                    chords, guitar, bass, and drum tabs
                                    from Ultimate-Guitar.com database.

                                    Type "ultimate guitar tabs" in Apple
                                    App Store's or Android Market's
                                    search to find the application.
-------------------------------------------------------------------------------
                             LASSO - Phoenix
-------------------------------------------------------------------------------
Tabbed by Take 1ne

Tuning: standard (EADGBe)

Intro:
e|-12--12--12--12--12--12--12--12--12--12--12--12--12--12--12--12--|
B|-13--12--12--13--12--12--13--12--13--12--12--13--12--12--13--12--|
G|-----------------------------------------------------------------|
D|-------------------------------------------------------------0---|
A|-----------------------------------------------------------------|
E|-----------------------------------------------------------------|

Verse 1:

e|-----------------------------------------------------------------|
B|-----7-------7-------7-------7-------9-------9-------9-------7---|
G|-----9-------9-------9-------9-------9-------9-------9-------9---|
D|-9---9---9---9---9---9---9---9---9---9---9---9---9---9---9---8---|
A|-----------------------------------------------------------------|
E|-----------------------------------------------------------------|

e|-----------------------------------------------------------------|
B|-----7-------7-------7-------7-------7-------7-------7-------7---|
G|-----9-------9-------9-------8-------8-------8-------8-------8---|
D|-8---8---8---8---8---8---8---9---9---9---9---9---9---9---9---9---|
A|-----------------------------------------------------------------|
E|-----------------------------------------------------------------|

X2

Bridge 1:

e|-----------------------------------------------------------------|
B|-----------------------------------------------------------------|
G|-----------------------------------------------------------------|
D|-----------------------------------------------------------------|
A|---------------------------------9---9---9---9---9---9---9---9---|
E|-7---7---7---7---7---7---7---7-----------------------------------|

e|-----------------------------------------------------------------|
B|---------------------------------7---7---7---7---7---7---7---7---|
G|-----------------------------------------------------------------|
D|-9---9---9---9---9---9---9---9-----------------------------------|
A|-----------------------------------------------------------------|
E|-----------------------------------------------------------------|

Chorus 1:

e|-------------------------------------------------------------x-x-|
B|-9---9---9---9---9---9---9---9---9---9---9---9---9---9---9---x-x-|
G|-9---9---9---9---9---9---9---9---9---9---9---9---9---9---9---x-x-|
D|-9---9---9---9---9---9---9---9---9---9---9---9---9---9---9---x-x-|
A|-7---7---7---7---7---7---7---7---7---7---7---7---7---7---7---x-x-|
E|-7---7---7---7---7---7---7---7---7---7---7---7---7---7---7-------|

e|-11--11--11--11--11--11--11--11--11--11--11--11--11--11--11--x-x-|
B|-11--11--11--11--11--11--11--12--12--12--12--12--12--12--12--x-x-|
G|-11--11--11--11--11--11--11--11--11--11--11--11--11--11--11--x-x-|
D|-9---9---9---9---9---9---9---9---9---9---9---9---9---9---9---x-x-|
A|-9---9---9---9---9---9---9---9---9---9---9---9---9---9---9---x-x-|
E|-----------------------------------------------------------------|

e|-4---4---4---4---4---4---4---4---4---4---4---4---4---4---4---x-x-|
B|-5---5---5---5---5---5---5---5---5---5---5---5---5---5---5---x-x-|
G|-4---4---4---4---4---4---4---4---4---4---4---4---4---4---4---x-x-|
D|-4---4---4---4---4---4---4---4---4---4---4---4---4---4---4---x-x-|
A|-4---4---4---4---4---4---4---4---4---4---4---4---4---4---4---x-x-|
E|-----------------------------------------------------------------|

e|-7---7---7---7---7---7---7---7---7---7---7---7---7---7---7---7---|
B|-7---7---7---7---7---7---7---7---7---7---7---7---7---7---7---7---|
G|-8---8---8---8---8---8---8---8---8---8---8---8---8---8---8---8---|
D|-6---6---6---6---6---6---6---6---6---6---6---6---6---6---6---6---|
A|-6---6---6---6---6---6---6---6---6---6---6---6---6---6---6---6---|
E|-----------------------------------------------------------------|

X2

Verse 2:

   P.M.------------------------------------------------------------|
e|-----------------------------------------------------------------|
B|-7---7---7---7---7---7---7---7---7---7---7---7---7---7---7---7---|
G|-9---9---9---9---9---9---9---9---9---9---9---9---9---9---9---9---|
D|-9---9---9---9---9---9---9---9---8---8---8---8---8---8---8---8---|
A|-----------------------------------------------------------------|
E|-----------------------------------------------------------------|

   P.M.------------------------------------------------------------|
e|-----------------------------------------------------------------|
B|-7---7---7---7---7---7---7---7---7---7---7---7---7---7---7---7---|
G|-8---8---8---8---8---8---8---8---8---8---8---8---8---8---8---8---|
D|-9---9---9---9---9---9---9---9---9---9---9---9---9---9---9---9---|
A|-----------------------------------------------------------------|
E|-----------------------------------------------------------------|

X2

e|-----------------------------------------------------------------|
B|---------7-----------7-------7---7---7---7---7---7---7---7---7---|
G|-9---9---9---9---9---9---9---9---9---9---11--9---9---11--9---11--|
D|-9---9---9---9---9---9---9---9---9---9---9---9---9---9---9---9---|
A|-----------------------------------------------------------------|
E|-----------------------------------------------------------------|

e|-----------------------------------------------------------------|
B|---------7-----------7-------7-------7-------7-------7-------7---|
G|-9---9---9---9---9---9---9---8---8---8---8---8---8---8---8---8---|
D|-8---8---8---8---8---8---8---9---9---9---9---9---9---9---9---9---|
A|-----------------------------------------------------------------|
E|-----------------------------------------------------------------|

X2

Chorus 2: repeat Chorus 1

Bridge 2: repeat Bridge 1, Intro

Solo (rhythm guitar plays Verse 1 throughout):

e|-12----------------------------------14------16------------------|
B|-9---------------------------9-/-11----------12------11----------|
G|-----------------------------------------------------------------|
D|-----------------------------------------------------------------|
A|-----------------------------------------------------------------|
E|-----------------------------------------------------------------|

e|---------16--14------12--------------14------16------14------14--|
B|---------12--11------9-------9-/-11------12------11------11------|
G|-----------------------------------------------------------------|
D|-----------------------------------------------------------------|
A|-----------------------------------------------------------------|
E|-----------------------------------------------------------------|

e|---------16------14\-12------12--------------14------16------14--|
B|---------12------11\-9-------9-------9-/-11------12------11------|
G|-----------------------------------------------------------------|
D|-----------------------------------------------------------------|
A|-----------------------------------------------------------------|
E|-----------------------------------------------------------------|

e|---------16----------14------12----------11----------9-------9---|
B|---------12------11----\-9-----------7---------\-5-------5-------|
G|-----------------------------------------------------------------|
D|-----------------------------------------------------------------|
A|-----------------------------------------------------------------|
E|-----------------------------------------------------------------|

e|---------11----------9-----------11----------9-----------11------|
B|-5-/-7-------7-\-5-------5-/-7-------7-\-5-------5-/-7-------7-\-|
G|-----------------------------------------------------------------|
D|-----------------------------------------------------------------|
A|-----------------------------------------------------------------|
E|-----------------------------------------------------------------|

e|-----9-----------11----------9-----------11----------9-----------|
B|-5-------5-/-7-------7-\-5-------5-/-7-------7-/-5-------5-/-7---|
G|-----------------------------------------------------------------|
D|-----------------------------------------------------------------|
A|-----------------------------------------------------------------|
E|-----------------------------------------------------------------|

e|-11----------9-----------11----------9-----------11----------9---|
B|-----7-\-5-------5-/-7-------7-/-5-------5-/-7-------7-\-5-------|
G|-----------------------------------------------------------------|
D|-----------------------------------------------------------------|
A|-----------------------------------------------------------------|
E|-----------------------------------------------------------------|

e|---------11----------9-----------11------9-----------7-----------|
B|-5-/-7-------7-\-5-------5-/-7-------5-------5-\-3-------3-\-0---|
G|-----------------------------------------------------------------|
D|-----------------------------------------------------------------|
A|-----------------------------------------------------------------|
E|-----------------------------------------------------------------|

Ending:

e|-----------------------------------------------------------------|
B|-----------------------------------------------------------------|
G|-----------------------------------------------------------------|
D|-----------------------------------------------------------------|
A|---------------------------------9---9---9---9---9---9---9---9---|
E|-7---7---7---7---7---7---7---7-----------------------------------|

e|-----------------------------------------------------------------|
B|---------------------------------7---7---7---7---7---7---7-------|
G|-----------------------------------------------------------------|
D|-9---9---9---9---9---9---9---9-----------------------------------|
A|-----------------------------------------------------------------|
E|-----------------------------------------------------------------|

************************************

| /    slide up
| \    slide down
| P.M. Palm mute
| h    hammer-on
| p    pull-off
| ~    vibrato
| +    harmonic
| x    Mute note
| b    Bend
| pb   Pre-bend
| br   Bend release
| pbr  Pre-bend release
| brb  Bend release bend

************************************
comments
We did not receive enough feedback on this tab! Please rate:
1 2 3 4 5
I want to post or [tab]
guest
You may want to rate the tab now too:
select rating
Please do not post tabs as comments. Select "correction" instead!