Oops, an error
Loading. Please wait.

Mugur De Fluier Bass Tab

586 views 1 this week
no commentswrite comment
1 2 3 4 5
please rate
Autoscroll
+/-
esc
set tempo
stop
Contributor
Hey! There's an official Ultimate Guitar app which is ideal
for learning songs when you're away from computer. Get the app
WARNING: You are trying to view
                                    content from Ultimate-Guitar.com
                                    in an unauthorized application,
                                    which is prohibited.

                                    Please use an official Ultimate
                                    Guitar Tabs application for iPhone,
                                    iPad or Android to access legitimate
                                    chords, guitar, bass, and drum tabs
                                    from Ultimate-Guitar.com database.

                                    Type "ultimate guitar tabs" in Apple
                                    App Store's or Android Market's
                                    search to find the application.
3/4

Intro (Pause for 4 measures)

|--------|--------|--------|--------|
|--------|--------|--------|--------|
|--------|--------|--------|--------|
|--------|--------|--------|--------|


  H.        H.        H    +E  E   H    +E  E
|---------|---------|------------|------------|
|-5-------|---------|------------|-5----(5)-5-|
|---------|-5-------|-7----(7)-7-|------------|
|---------|---------|------------|------------|


  H.        H.        H.        H.
|---------|---------|---------|-------|
|-9-------|---------|-5-------|-------|
|---------|-5-------|---------|-5-----|
|---------|---------|---------|-------|


  H.        H.        H    +E  E   H    +E  E
|---------|---------|------------|------------|
|-5-------|---------|------------|-5----(5)-5-|
|---------|-5-------|-7----(7)-7-|------------|
|---------|---------|------------|------------|


  H.        H.        H.        E E E E E E
|---------|---------|---------|-------------|
|-9-------|---------|-5-------|-9-7---5-----|
|---------|-5-------|---------|-----------5-|
|---------|---------|---------|-------------|


Verse

  H    +E  E   H    +E  E   Q  +E  E e E   Q  +E  E e E
|------------|------------|--------------|--------------|
|-5----(5)-5-|------------|--------------|--------5-7-5-|
|------------|-5----(5)-5-|--------------|-5--(5)-------|
|------------|------------|-5--(5)-5-5-7-|--------------|


  H    +E  E   q  E E q     Q   +E   E E  E   q  E E q
|------------|-----------|------------------|-----------|
|-9----(9)-5-|-----------|-------------9----|-----------|
|------------|-5--5-7-5--|-10--(10)-10---10-|-5--5-7-5--|
|------------|-----------|------------------|-----------|


  H    +E  E   H    +E  E   Q  +E  E e E   Q  +E  E e E
|------------|------------|--------------|--------------|
|-5----(5)-5-|------------|--------------|----------5---|
|------------|-5----(5)-5-|--------------|-5--(5)-5---5-|
|------------|------------|-5--(5)-5-5-7-|--------------|


  Q  +E  q  E   q  E E q     Q   +E   E E  E   q  E E q
|-------------|-----------|------------------|-----------|
|-5--(5)-4----|------7----|-------------9----|--------4--|
|-----------7-|-5--5---5--|-10--(10)-10---10-|-5--5-7----|
|-------------|-----------|------------------|-----------|


  Q  +E  E +E  E   Q  +E  E E E   Q  +E  E e E   Q  +E  E e E
|----------------|--------------|--------------|--------------|
|-5--(5)-5-(5)-5-|----------7---|--------------|----------5---|
|----------------|-5--(5)-5---5-|--------------|-5--(5)-5---5-|
|----------------|--------------|-5--(5)-5-5-7-|--------------|


  Q  +E  q  E   q  E E q     Q   +E   E E  E   q  E E q
|-------------|-----------|------------------|-----------|
|-5--(5)-4----|-----------|-------------9----|--------4--|
|-----------7-|-5--5-7-9--|-10--(10)-10---10-|-5--5-7----|
|-------------|-----------|------------------|-----------|


  Q +E   E +E  E   Q  +E  E E E   Q  +E  E e E   Q  +E  E e E
|----------------|--------------|--------------|--------------|
|-5-(5)--5-(5)-5-|----------7---|--------------|----------5---|
|----------------|-5--(5)-5---5-|--------------|-5--(5)-5---5-|
|----------------|--------------|-5--(5)-5-5-7-|--------------|


  Q  +E  q  E   q  E E q    Q  +E  E E E   q  E E q
|-------------|-----------|--------------|-----------|
|-5--(5)-4----|--------4--|-5--(5)-5-4---|--------4--|
|-----------7-|-5--5-7----|------------7-|-5--5-7----|
|-------------|-----------|--------------|-----------|


 Bridge
 
4/4

  E e E E E E E E   +E  E E E E E E E
|-----------------|-------------------|
|-5-5-4-----------|-------------------|
|-------7---5-----|-----5-7-0-7-5-7-0-|
|---------------5-|-(5)---------------|


  E e E E E E E E   +E  e S S s +S  E E E E
|-----------------|-------------------------|
|-5-5-4-----------|-----------------------4-|
|-------7---5-----|-----5-7p5p0-(0)---5-7---|
|---------------5-|-(5)---------------------|


  E e E E E E E E   +E  E E E E E E E   E e E E E E E E   +E  E e E +E  E q
|-----------------|-------------------|-----------------|----------------------|
|-5-5-4-----------|-------------------|-5-5-4-----------|------------------4---|
|-------7---5-----|-----5-7-0-7-5-7-0-|-------7---5-----|-------7-5-(5)-7------|
|---------------5-|-(5)---------------|---------------5-|-(5)-8----------------|


 Verse

 3/4

  H    +E  E   H    +E  E   Q  +E  E e E   Q  +E  E e E
|------------|------------|--------------|--------------|
|-5----(5)-5-|------------|--------------|--------5-7-5-|
|------------|-5----(5)-5-|--------------|-5--(5)-------|
|------------|------------|-5--(5)-5-5-7-|--------------|


  Q  +E  q  E   q  E E q    H    a E E   E E E E q
|-------------|-----------|------7s9-7-|-5-7-5-------|
|-5--(5)-4----|-----------|-5----------|-------7-5---|
|-----------7-|-5--5-7-5--|------------|-------------|
|-------------|-----------|------------|-------------|


  H    +E  E   H    +E  E   Q  +E  E e E   Q  +E  E e E
|------------|------------|--------------|--------------|
|-5----(5)-5-|------------|--------------|--------5-7-5-|
|------------|-5----(5)-5-|--------------|-5--(5)-------|
|------------|------------|-5--(5)-5-5-7-|--------------|


   Q   +E  q  E   q  E E E E   q  +E  a E E E   E E q  q
|---------------|--------7---|------------7---|-7----------|
|---------------|------5---7-|-5--(5)-7s9---9-|---9-7--5---|
|-10--(10)-9--7-|-5--5-------|----------------|------------|
|---------------|------------|----------------|------------|


  H    +E  E   H    +E  E   H    e E   Q  +E  E e E
|------------|------------|----------|--------------|
|-5----(5)-5-|------------|----------|----------5---|
|------------|-5----(5)-5-|----------|-5--(5)-5---5-|
|------------|------------|-5----5-7-|--------------|


  Q  +E  q  E   q  E E q    Q  +E  E e E   q  E E E e
|-------------|-----------|--------------|--------7---|
|-5--(5)-4----|--------4--|-5--(5)-5-4---|----5-7---7-|
|-----------7-|-5--5-7----|------------7-|-5----------|
|-------------|-----------|--------------|------------|


  Q  +E  e E E   Q  +E  e E E   H    e E   Q  +E  E e E
|----------4---|--------------|----------|--------------|
|-5--(5)-5---5-|----------7---|----------|----------7---|
|--------------|-5--(5)-5---5-|----------|-5--(5)-5---5-|
|--------------|--------------|-5----5-7-|--------------|


  Q  +E  q  E   q  E E q     Q   +E   E E  E   q  E E q
|-------------|-----------|------------------|-----------|
|-5--(5)-4----|-----------|-------------9----|--------4--|
|-----------7-|-5--5-7-9--|-10--(10)-10---10-|-5--5-7----|
|-------------|-----------|------------------|-----------|


 Bridge

 4/4

  E e E E E E E E   +E  e S S s +S  E E E E
|-----------------|-------------------------|
|-5-5-4-----------|---------------------5---|
|-------7---5-----|-----5-7p5p3-(3)---5---5-|
|---------------5-|-(5)---------------------|


  E e E E E E E E   E e S S s +S  E E E E
|-----------------|------------------------|
|-5-5-4-----------|---------------------4--|
|-------7---5-----|---5-7p5p0-(0)---5-7----|
|---------------5-|-5----------------------|


  E e E E E E E E   +E  E E E +E  E  E e
|-----------------|----------------------|
|-5-5-4-----------|-----4-7-5-(5)-4----5-|
|-------7---5-----|------------------7---|
|---------------5-|-(5)------------------|


  E E E E E E E E    E E E E +E  E q
|------------------|--------------------|
|-4----------------|---------------4----|
|---7---5-----5----|-5---7-5-(5)-7------|
|-----------5---5--|---5----------------|


Chorus

  Q  E E +E  E E e   E E E E E E E e   E E E E +E  E E  e   E  E Q   e E  E E
|------------------|-----------------|--------------------|-9-----------------|
|-5--5---------7---|-----7-------7---|-------7-(7)-7-9-12-|---12-9--12-9------|
|------5-(5)-5---5-|-7-7---5---5---5-|---7-5--------------|--------------12---|
|------------------|-----------------|-8------------------|-------------------|


  Q  +E  E Q  +E  E   E E E E E E E E   E E E E +E  E e E   E E E E +E  E E E
|-------------------|-----------------|-------------------|-------------------|
|-5--(5)-5----------|-----7-------7---|-------7-(7)-----5-|-9-7-5-------------|
|----------5--(5)-5-|-5-7---5---5---5-|---5-7-------5-7---|-------5-(5)-7-5---|
|-------------------|-----------------|-5-----------------|-------------------|


  Q  E E +E  E E e   E E E E E E E e
|------------------|-----------------|
|-5--5---------7---|-----7-------7---|
|------5-(5)-5---5-|-7-7---5---5---5-|
|------------------|-----------------|


  E E S S S S +E  E E E   E E Q  E E E E
|-----------------------|------------------|
|-----------5-(5)-9-7-5-|--------5---7-----|
|---5-7-5-7-------------|-7-5-7----7-------|
|-5---------------------|------------------|


  Q  +E  E Q  +E  E   E E E E E E E E
|-------------------|-----------------|
|-5--(5)-5----------|-----7-------7---|
|----------5--(5)-5-|-5-7---5---5---5-|
|-------------------|-----------------|


  E E E E +E  E S S e   E e +E  E S S S S +E  E
|-------------7-5-4---|--------------------------|
|-5---5-7-(7)-------7-|-7-9-(9)-----5-7----------|
|---7-----------------|-----------7-----5-(5)----|
|---------------------|---------8----------------|


 Solo
 3/4
                                   |-4:3-|
  H    E E   H    E E   H    E e   Q q Q Q
|----------|----------|----------|---------|
|-5------5-|-4----2s4-|-7----7-9-|-9-7-7---|
|----------|----------|----------|-------7-|
|----------|----------|----------|---------|


  Q  +E  E E E   q  E E q    Q  +E  e S S S S   Q  +E  E E E
|--------------|-----------|------------------|--------------|
|-5--(5)-4-----|-----------|------------------|----------5---|
|------------7-|-5--5-7-5--|----------2-------|-3--(3)-3---3-|
|--------------|-----------|-3--(3)-3---3---5-|--------------|


  H    E E   Q  +E  E E S S   Q  +E  E +E  E   Q  +E  E E E
|----------|----------------|----------------|---------------|
|-5------5-|-4--(4)-5-4-----|----------------|----------4----|
|----------|------------5-3-|----------------|-5--(5)-5---5--|
|----------|----------------|-3--(3)-5-(5)-7-|---------------|


  Q  +E  E E E   q  E E q    Q  +E  E E E   q  E E q
|--------------|-----------|--------------|-----------|
|-5--(5)-4-----|--------4--|-5--(5)-5-4---|------7----|
|------------7-|-5--5-7----|------------7-|-5--5---5--|
|--------------|-----------|--------------|-----------|


 Chorus
  Q  E E +E  E E e   E E E E E E E e   E E E E +E  E E  e   E  E Q   e E  E E
|------------------|-----------------|--------------------|-9-----------------|
|-5--5---------7---|-----7-------7---|-------7-(7)-7-9-12-|---12-9--12-9------|
|------5-(5)-5---5-|-7-7---5---5---5-|---7-5--------------|--------------12---|
|------------------|-----------------|-8------------------|-------------------|


  Q  +E  E Q  +E  E   E E E E E E E E   E E E E +E  E e E   E E E E +E  E E E
|-------------------|-----------------|-------------------|-------------------|
|-5--(5)-5----------|-----7-------7---|-------7-(7)-----5-|-9-7-5-------------|
|----------5--(5)-5-|-5-7---5---5---5-|---5-7-------5-7---|-------5-(5)-7-5---|
|-------------------|-----------------|-5-----------------|-------------------|


Bass improvisation until fade-out...

  Q  E E +E  E E e   E E E E E E E e
|------------------|-----------------|
|-5--5---------7---|-----7-------7---|
|------5-(5)-5---5-|-7-7---5---5---5-|
|------------------|-----------------|


  E E S S S S +E  E E E   E E Q  E E E E
|-----------------------|------------------|
|-----------5-(5)-9-7-5-|--------5---7-----|
|---5-7-5-7-------------|-7-5-7----7-------|
|-5---------------------|------------------|


  Q  +E  E Q  +E  E   E E E E E E E E
|-------------------|-----------------|
|-5--(5)-5----------|-----7-------7---|
|----------5--(5)-5-|-5-7---5---5---5-|
|-------------------|-----------------|


  E E E E +E  E S S e   E e +E  E S S S S +E  E
|-------------7-5-4---|--------------------------|
|-5---5-7-(7)-------7-|-7-9-(9)-----5-7----------|
|---7-----------------|-----------7-----5-(5)----|
|---------------------|---------8----------------|
comments
We did not receive enough feedback on this tab! Please rate:
print report bad tab
1 2 3 4 5
I want to post or [tab]
guest
You may want to rate the tab now too:
select rating
Please do not post tabs as comments. Select "correction" instead!