Oops, an error
Loading. Please wait.

Mugur De Fluier Tab

3,325 views 1 this week
1 commentread comment
1 2 3 4 5
excellent!
x 5
Autoscroll
+/-
esc
set tempo
stop
Contributor
NEW! There's an official Ultimate Guitar app which is ideal
for learning songs when you're away from computer. Get the app
WARNING: You are trying to view
                                    content from Ultimate-Guitar.com
                                    in an unauthorized application,
                                    which is prohibited.

                                    Please use an official Ultimate
                                    Guitar Tabs application for iPhone,
                                    iPad or Android to access legitimate
                                    chords, guitar, bass, and drum tabs
                                    from Ultimate-Guitar.com database.

                                    Type "ultimate guitar tabs" in Apple
                                    App Store's or Android Market's
                                    search to find the application.
Intro: G D G D / G D Am 
/ G D G D

The pattern for the first set of chords in the intro is shown below.  this is 
done in each verse as well

   G            D             G            D

e|-3--333-3-3-X-2--222-0-2-X--3--333-3-3-X-2--22-3--33-5-X--------|
b|-3--333-3-3-X-3--333-3-3-X--3--333-3-3-X-3--33-3--33-3-X--------|
G|-0--000-0-0---2--222-2-2----0--000-0-0---2--22-2--22-2----------|
D|-0--000-0-0---0--000-0-0----0--000-0-0---0--00-0--00-0----------|
A|-2--222-2-2-----------------2--222-2-2--------------------------|
E|-3--333-3-3-----------------3--333-3-3--------------------------|

G        D         Am         C G (on this 
do above pattern) D G D
Imi simt sufletul, mugur de fluier
Ce-a doinit, cantec cu suier.
Pentru zilele, ce-au fost trecute
Pentru noptile, negre si slute.

Then for the little flute interlude that will appear later with lyrics as well, the chords are
G   D C  A /  G   D Am 
D  /  repeat


Second verse same as first...


G         D C  A
Freamatul a-pe-lor
   G        D  Am   Em    D
Si fosnetul co-dri-lor,
G        D  C   A
In el se in-tal-nesc
   G          D  Am   Em    D
Si sufletu-mi in-cal-zesc.


then for the best outro ever:

G    D    C       A
Hei, hei, verde e iarba,
Am         D7      G
Soarele-i sus pe cer!
G    D    C      A
Hei, hei, dusa e iarna,
Am         D7     G
Cu dintii ei de fier!

The D7 is optional... as are most dominant 7's... especially since the harmony itself 
the flat 7 and thus you don't really need it in your chord voicing


                                            ***

and finally, because i'm such a nice guy, and because some of you might actually be 
in singing the song, i'm going to tab out the melody and the harmonies in the outro.

This is the Lead, each note represents one syllable:

e|--------------------------------------------|
b|--------------------------------------------|
G|--4--2--0-2--4--2-2-----2-0------------0----|
D|----------------------------4----2--0-------|
A|--------------------------------------------|
E|--------------------------------------------|

harmony 1, different from the lead on the word "pe" where it is split in two notes 
than one... so... give "pe" two syllables so that it starts on an "A" and ends on the "C#"

e|--------------------------------------------|
b|--3--1--0-1--3--2-2-----1-0-----------------|
G|-----------------------------2---2--2-/-5-4-|
D|--------------------------------------------|
A|--------------------------------------------|
E|--------------------------------------------|

harmony 2, different from lead on the word "sus", same deal as harmony 2, where there 
two notes on a monosyllabic word - "sus" should fall on the "E" sliding down to the "D"

e|--3-----0-2--3--0-0-----2-0----------------|
b|-----3----------------------3---5-\-3-3--3-|
G|-------------------------------------------|
D|-------------------------------------------|
A|-------------------------------------------|
E|-------------------------------------------|

all together now!

e|--3-----0-2--3--0-0-----2-0------------------|
b|--3--3--0-1--3--2-2-----1-0-3---5-\-3-3----3-|
G|--4--5--0-2--4--2-2-----2-0-2---2-----2-/5-4-|
D|-----7----------------------4---2-----0----5-|
A|---------------------------------------------|
E|---------------------------------------------|

if anyone tabs the bass for this song i will be very impressed
comments
print report bad tab
1 comment total.
0 reply
banzaiman wrote on September 23 2009, 12:43 pm

Wrong Phoenix, this is the Romanian Phoenix, not the French ;)

I want to post or [tab]
guest
You may want to rate the tab now too:
select rating
Please do not post tabs as comments. Select "correction" instead!