Oops, an error
Loading. Please wait.

A Flair For The Dramatic Tab

4,038 views 3 this week
6 commentsread comments
1 2 3 4 5
worth learning
x 8
Autoscroll
+/-
esc
set tempo
stop
Difficulty
intermediate
NEW! There's an official Ultimate Guitar app which is ideal
for learning songs when you're away from computer. Get the app
WARNING: You are trying to view
                                    content from Ultimate-Guitar.com
                                    in an unauthorized application,
                                    which is prohibited.

                                    Please use an official Ultimate
                                    Guitar Tabs application for iPhone,
                                    iPad or Android to access legitimate
                                    chords, guitar, bass, and drum tabs
                                    from Ultimate-Guitar.com database.

                                    Type "ultimate guitar tabs" in Apple
                                    App Store's or Android Market's
                                    search to find the application.
Pierce The Veil - A Flair For The Dramatic


-------------------------------------------------------
Chemical Kids:
Capo on 1st fret, standard tuning (Numbers are for actual frets, except “0”, which will 
1st fret in this case)

Opening Chord:

E--17---|
B--17---|
G--17---|
D-------|
A-------|
E-------|

2nd guitar:

E------------5~----|
B-----3--5~--------|Play that a few times, then it goes into
G------------------|some little riff using those notes
D--3~--------------|
A------------------|
E------------------|


1st Riff:

E-----------------------------------------|
B-----------------------------------------|
G-----------------------------------------|  x 2
D-----------------------------------------|
A--6p0--4p0----------6p0--4p0-------------|
E------------6--4p0------------4p0h4h6p0--|


E-----------------------------------------|
B-----------------------------------------|
G-----------------------------------------| x 2
D-----------------------------------------|
A--4p0--3p0----------4p0--3p0-------------|
E------------6--4p0------------4p0h4h6p0--|

E------------------------------------------------------------------------------|
B------------------------------------------------------------------------------|
G------------------------------------------------------------------------------|
D------------------------------------------------------------------------------|
A--6p0--4p0----------6p0--4p0-------------6p0--4p0---------6p0--4p0-------6h8--|
E------------6--4p0------------4p0h4h6p0------------6--4p0-----------4p0-------|

E----------------------------------------------------------------------------------|
B----------------------------------------------------------------------------------|
G----------------------------------------------------------------------------------|
D----------------------------------------------------------------------------------|
A-------3p0--4p3p0--------3p0--4p0h4h6p0--6p0--4p0----------6p0--4p0---------------|
E--6p0---------------6p0----------------------------6--4p0--------------4p0h4h6----|




E------------------------------------|
B--------------6--5--3----------3----|
G--------------7--5--4--4----5-------|
D--5-----5---------------------------|
A--5-----5---------------------------|
E--3-----3---------------------------|

E------------------------------------------------|
B-------12----------------------------------3----|
G-------14b16-----------------------4----5-------|
D--5---------------------------------------------|
A--5-------------7---7-5---5-3---3---------------|
E--3---------------5-----5-----5-----------------|




Currents Convulsive:
(Low E tuned down 1 ½ steps - tune 8th fret to A string)


Intro Riff (x2)
E----------------------------------------------------------------------------|
B----------------------------------------------------------------------------|
G----------------------------------------------------------------------------|
D----------------------------------------------------------------------------|
A-----4p0----4p0-----2p0-----2p0-----2p0-------4p0-----4p0-----2p0-----2p0---|
E--5------5------3-------3-------3-------3/5-------5-------3-------3---------|

E--------------------------------------------------------------------------|
B--------------------------------------------------------------------------|
G--------------------------------------------------------------------------|
D--------------------------------------------------------------------------|
A-----2p0--------2p0-----2p0-----4p0-----4p0-----4p0-------2p0-----2p0-----|
E--3-------3--3-------3-------3-------3-------3-------3--3-------4---------|
           *                                          *

E-----------------------------|
B-----------------------------|
G-----------------------------|
D-----------------------------|
A-----4p0-----4p0-----4p0-----|
E--3-------3-------3-------3--|

2nd Guitar:

E-------------------------|--9-----|--9-----|
B-------------------------|--10----|--10----|
G--14------11-------13----|--11----|--11----|
D---x-------x--------x----|--------|--------|
A--12-------9-------11----|--------|--------|
E-------------------------|--------|--------|


Verse:

E-------------------------------|
B-------------------------------|
G-------------------------------|
D----7p0---7p0----9p0----9p0----|
A--9-----9-----11-----11--------|
E-------------------------------|


Guitar 1:
E-------------/9-9-------7-7-------5-5-------4-5-7----|
B-------------------7-7-------7-7-------7-7-----------|
G--14~----13~-----------------------------------------|
D--11~-----9~-----------------------------------------|
A--12~----11~-----------------------------------------|
E-----------------------------------------------------|

E--/9-9-------7-7-------5-5------------9------|
B--------7-7-------7-7-------7-7--9h10---10~--|
G---------------------------------------------|
D---------------------------------------------|
A---------------------------------------------|
E---------------------------------------------|

(Fill played by other guitar)

E--0h7h9p0h7h9p0h7h9p0h7h9p0h7--10--9~----|
B-----------------------------------------|
G-----------------------------------------|
D-----------------------------------------|
A-----------------------------------------|
E-----------------------------------------|


Guitar 2:
E--------------------------------------------------------|--------|
B--------------------------------------------------------|--------|
G---------------------------6-6-6-6--4-4-4-4--2-2-2-2----|--------|
D--7~-----6~----0-0-0-0-----7-7-7-7--6-6-6-6--4-4-4-4----|--7~----|
A--x------x-----0-0-0-0----------------------------------|--x-----|
E--5~-----3~----1-1-1-1----------------------------------|--5~----|

                |___________^Play twice^_____________|

Short fill:

E-------------------|
B-------------------|
G-------------------|
D-------------------|
A--0-4-0-4b5r-------|
E-------------7~----|

E------------------------------------------|
B------------------------------------------|
G---------------------------7----9----6----|
D---------------------------4----6----7----|
A---------------------------5----7----4----|
E--0-0-0-0-0-0-0-0-0-0-0-0-----------------|
                                      ^Keep strumming until chorus

Chorus:

Guitar 1:

E-----------------------------------------|
B-----------------------------------------|
G--14----13--------------------------7----|
D--11----9-----7-7--6-6--4-4--2-2----4----|
A--12----11--------------------------5----|
E-----------------------------------------|


Guitar 2:

E-------------------------------------|
B-------------------------------------|
G-------7-----------------------------|
D--4----4--------------------------0--|
A--4----4--------------------------0--|
E--5----5----8-8--7-7--5-5--3-3----1--|




Post Chorus:
Guitar 1:
E---------------------------------------------|
B---------------------------------------------|
G---------------------------------------------|
D--11-11-----11-11------11-11-----11-11-------|
A--------9-9-------9-9--------9-9-------19----|
E---------------------------------------------|


E----------------------------------------------------|
B----------------------------------------------------|
G-------------------------6-6-6-6--------------------|
D--9-9-9-9-9-9-9--7-7-7-7-7-7-7-7-9-9-9-9-7-7-7-7----|
A--7-7-7-7-7-7-7--5-5-5-5---------5-5-5-5-5-5-5-5----|
E----------------------------------------------------|
                  |  ^ Play this part twice   ^  |


2nd time around:

E---------------------------------------------|
B---------------------------------------------|
G---------------------------------------------|
D--11-11-----11-11------11-11-----11-11-------|
A--------9-9-------9-9--------9-9-------19----|
E---------------------------------------------|


E------------------------------------------|
B------------------------------------------|
G------------------------------------------|
D--9-9-9-9-9-9-9-9----2-2-2-2--4-4--6-6----|
A--7-7-7-7-7-7-7-7----4-4-4-4--5-5--7-7----|
E------------------------------------------|

Play both variations twice (end is slightly diff 2nd time around but im not writing it 
out again - you can work it out)

Build up into 2nd chorus:

E--------------------------------------------------------------|
B--------------------------------------------------------------|
G--------------------------------------------------------------|
D--0-0-0-0-0-0-0-0----2-2-2-2-2-2-2-2--------------------------|
A--0-0-0-0-0-0-0-0----2-2-2-2-2-2-2-2--------------------------|
E--1-1-1-1-1-1-1-1----3-3-3-3-3-3-3-3----3p0--1p0--3p1p0--0----|

Post Chorus, Guitar 2:
E----------------------------------------------------------------------------------|
B----------------------------------------------------------------------------------|
G----------------------------------------------------------------------------------|
D--7-7-7-7-7-7--9-9-9---7-7-7-7-7-7-----------6-6-6-6-6-6-----------7-7-7-7-7-7-7--|
A-------------------------------------9-9-9-----------------7-7-7------------------|
E----------------------------------------------------------------------------------|

E-------------------------------------------|
B-------------------------------------------|
G-------------------------------------------|
D-------------------------------------------|
A--7-7-7--9-9-9-9-9-9--11-11-11-11-11-11----|
E-------------------------------------------|

Play a few times
E---------------------------------|
B---------------------------------|
G---------------------------------|
D--7-7-----7-7-----7-7-----7h9----|
A------9-9-----9-9-----9-9--------|
E---------------------------------|

Throw this one in near the middle end:
E---------------------------------|
B---------------------------------|
G---------------------------------|
D--7-7-----7-7-----7-7-9-9-7-7-6--|
A------9-9-----9-9----------------|
E---------------------------------|

End on:

E-------------------------------------------------------------|
B-------------------------------------------------------------|
G--6h7p6------------------------------------------------------|
D--------9p7---7-6~----7/9--7----9----9/11----12/14-12-11~----|
A------------9------------------------------------------------|
E-------------------------------------------------------------|

After 2nd chorus:

E-------------------------------------------------|
B-------------------------------------------------|
G-----9-9-9-9---9-9-9-9----7~---11--13--14--11\---|
D--2--6-6-6-6---6-6-6-6----4~---x---x---x---7\----|
A--2--7-7-7-7---7-7-7-7----5~---9---11--12--9\----|
E--3----------------------------------------------|

E----------17p14--16p14------19p14------17p14--16p14-----------|
B--14--14----------------14---------14---------------15--14----|
G--------------------------------------------------------------|
D--------------------------------------------------------------|
A--------------------------------------------------------------|
E--------------------------------------------------------------|

E-------------------------------------------------------------------|
B--------------------------14h15p14---------------------------------|
G--14----14h16p14----14h16----------16p14-----14----------14h16p14--|
D-----16----------16-----------------------16----16~--16------------|
A-------------------------------------------------------------------|
E-------------------------------------------------------------------|

E-------------------------------------|
B-----------14h15p14------------------|
G-----14-------------16p14----14------|
D--16----16----------------16----15~--|
A-------------------------------------|
E-------------------------------------|


E----------------------------------------------------------------------------------|
B-----14-14-14-14-14-14-14-14-14-14----------------------14--14--14--14--14--14\---|
G-------------------------------------------16-16-16-16--16b-16b-16b-16b-16b-16b\--|
D--15-------------------------------15~--15----------------------------------------|
A----------------------------------------------------------------------------------|
E----------------------------------------------------------------------------------|

E------------------------------------------------------------------|
B--10--10--10--10--10--10--10--10---9---9---9---9---9---9---9---9--|
G--11--11--11--11--11--11--11--11--10--10--10--10--10--10--10--10--|
D--11--11--11--11--11--11--11--11--11--11--11--11--11--11--11--11--|
A------------------------------------------------------------------|
E------------------------------------------------------------------|

E-----10----9--------17--16------17--16------17--16------17--16--------|
B----------------------------14----------14----------14----------14----|
G--11----11------------------------------------------------------------|
D----------------------------------------------------------------------|
A----------------------------------------------------------------------|
E----------------------------------------------------------------------|

E--14--16------14--16------14--16------14--16------14--------|
B----------14----------14----------14----------14------14----|
G------------------------------------------------------------|
D------------------------------------------------------------|
A------------------------------------------------------------|
E------------------------------------------------------------|








Yeah Boy

Intro Chords:

X 2
E-------------------|
B--5---5---4---4----|
G--6---6---4---5----|
D--6---6---4---4----|
A--4---0---6---6----|
E-------------------|


Then:
E------------------------|
B--5---5---5-------------|
G--6---6---6-------------|
D--6---6---6-------------|
A--4---x---x-------------|
E------6---5-------------|


Back to the 1st progression:
E-------------------|
B--5---5---4---4----|
G--6---6---4---5----|
D--6---6---4---4----|
A--4---0---2---6----|
E--------------7----|

Finally:
E----0-----|
B----0-----|
G----4-----|
D----4-----|
A----2-----|
E----0-----|


Overdrive comes in
E---------------------------------|
B-------5--4---------5----5----5--|
G--6----6--6----2----6----6----6--|
D--6------------2----6----6----6--|
A--4------------0----4----x----0--|
E-------------------------6-------|


Play twice
E------------------------------------------|
B--5-5--4-4--5-5--4-4--5-5--4-4----5----4--|
G--6-6--6-6--6-6--6-6--6-6--6-6----6----6--|
D------------------------------------------|
A------------------------------------------|
E------------------------------------------|



Fill:

E--5h7p5p4--------|
B----------7b^r---|
G-----------------|
D-----------------|
A-----------------|
E-----------------|


Then play chords from intro

E----------------------------------------------------|
B----------------------------------------------------|
G--13---13----11---11----9---------------------------|
D--x----x-----x----x-----x---------------6--6--6--7--|
A--11---11----9----9-----7---7-7-9-9-9-9-------------|
E----------------------------------------------------|


E---------------------------------4~-----4~-----4~----4~-|
B--5-----5--4--------4---4------5------5------5-------5~-|
G----6--------4---4--4---5----6------6------4---------6~-|
D------6--------6----4---4-------------------------------|
A--------------------------------------------------------|
E--------------------------------------------------------|


E---------------------------------|
B-------5--4---------5----5----5--|
G--6----6--6----2----6----6----6--|
D--6------------2----6----6----6--|
A--4------------0----4----x----0--|
E-------------------------6-------|


2nd guitar:

E-------------------------------|
B-------------------------------|
G--13---6---11---6---9-9-9-9----|
D--x----x---x----x---x-x-x-x----|
A--11---4---9----4---7-7-7-7----|
E-------------------------------|

E--------------------------|
B-------------5----5--5----|
G--6-----2----6----6--6----|
D--6--2--2----6----6--6----|
A--4--2--0----4----x--0----|
E-----0------------6-------|

E--
B--
G---------------------------9--8--6--13--11--9-|
D--4---4--4--4----6----6----x--x--x--x---x---x-|
A--4---4--4--4----7----7----7--6--4--11--9---7-|
E--2---2--2--2----4----4-----------------------|


I’d Rather Die:
(½ step up)


E--------------------------------------|
B----6-------6--------6-------6--------|
G------8---8---6--------8---8---6------|
D--8-----8-------8--------8-------8----|
A--------------------------------------|
E--------------------------------------|

E-------------------------------------|
B-------------------------------------|
G--9-9-7-9~----14-14-14----9-9-7-9----|
D--x-x-x-x------x--x--x----x-x-x-x----|
A--7-7-5-7~----12-12-12----7-7-5-7----|
E-------------------------------------|

E--0~-----0---------------9-8-------------8----------0---------------|
B--4/6----9--6-----------------------9-----------8-7-6---------------|
G------------8b^10r8---10------10~-----------7-----------------------|
D---------------------------------------8----------------------------|
A--------------------------------------------------------------------|
E--------------------------------------------------------------------|

E------------------------------------------------------|
B----------13----13~--13----13--16---------------------|
G--6~--5~-----15---------15--------15------------------|
D----------------------------------------13-11-10------|
A-------------------------------------------------13~--|
E------------------------------------------------------|

E----------------------------------------------------|
B----------------------------------------------------|
G----------------------------------------------------|
D--13--11--10---------------13--11--10---------------|
A-------------11h13--11--10------------11h13--11-10--|
E----------------------------------------------------|

E---------------------------------------|
B---------------------------------------|
G---------------------------------------|
D--13p11p10----------13p11p10-----------|
A-----------13p11p10----------13p11p10--|
E---------------------------------------|

E--12~-------------------|
B--15b17~----15~--15~----|
G------------------------|
D------------------------|
A------------------------|
E------------------------|

Back to Main Riff

E-------9---------------------------------------------------------------------|
B--6h7-----7--6---------------------------------------------------------------|
G----------------8p6--6~----6/8----8/10--8~------8/10--10/11--10~----8---5----|
D---------------------8~----8/10--10/11--10~----10/11--11/13--11~----10--6----|
A-----------------------------------------------------------------------------|
E-----------------------------------------------------------------------------|


E-----------------------------------------------------------------|
B-----------------------------------------------------------------|
G--10-10-10-10-----8--8--8--8----6p0-----8p0-----6p0-----5--6~----|
D--11-11-11-11----10-10-10-10---------6-------6-------6--6--8~----|
A-----------------------------------------------------------------|
E-----------------------------------------------------------------|

E-----------------------------------------------------|
B-----------------------------------------------------|
G--6/8----8/10--8-----8b^10--8--6--5--6--8--10--11----|
D--8/10--10/11--10------------------------------------|
A-----------------------------------------------------|
E-----------------------------------------------------|

Back to main riff


Then: (Still working on the lead underneath this)
E-----------------------------------------------------------|
B-----------------------------------------------------------|
G-----------------------------------------------------------|
D--4-4-4-4-4-4-4-4----8-8-8-8-8-8-8-8----4-4-4-4-4-4-4-4----|
A--4-4-4-4-4-4-4-4----8-8-8-8-8-8-8-8----4-4-4-4-4-4-4-4----|
E--2-2-2-2-2-2-2-2----6-6-6-6-6-6-6-6----2-2-2-2-2-2-2-2----|

E----------------------------------------------------|
B----------------------------------------------------|
G----------------------------------------------------|
D--8--8--6--8--8-8-8-8-8-8-8-8--8--8--6--8--x-x-x-x--|
A--8--8--6--8-------------------8--8--6--8--x-x-x-x--|
E--6--6--4--6-------------------6--6--4--6--x-x-x-x--|

E--------------------------------------------|
B-----6--9--6--------------------------------|
G--8-----------8b^10r8p6----6----------------|
D-------------------------8---8-7-6----------|
A-----------------------------------8--------|
E-------------------------------------10*----|

Back to Main Riff…The End!




THE CHEAP BOUQUET:

Intro (w/delay)
E-----------|
B--11-------|
G--12--10---|
D------12---|
A-----------|
E-----------|


1st riff (under screaming)
E---------------------------------------------------------|
B---------------------------------------------------------|
G---------------------------------------------------------|
D---------------------------------------------------------|
A---------------------------------------------------------|
E--15--0--13h15--0--0--13h15--0--0--13h15--0--0--13h15----|


Short clean part
E-----------------------------|
B-----------------10----------|
G-------------10------10------|
D---------12--------------12--|
A--10h12----------------------|
E-----------------------------|

Chorus Riff
E------------------------------------------------------------------|
B--11---------------11--10-----------------------------------------|
G-----10------10-----------10----------------------10--8h10--8~----|
D--------12~-----12-----------12--10--10h12~----8------------------|
A------------------------------------------------------------------|
E------------------------------------------------------------------|

E--------------------------------|
B--------------------------------|
G-----10--8h10--8--7--5--5h7~----|
D--8-----------------------------|
A--------------------------------|
E--------------------------------|

Chords after chorus:

E--0----0----0----6-|
B--6----4----0----6-|
G--0----5----0----0-|
D--5----5----5----0-|
A--6----0----5----5-|
E------------0----6-|


Thennnnn…


E-------------------------------------------------------------------------|
B--4/6-------------------4/6------------------4/6-------------------------|
G------5p0-------------------5p0------------------5p0---------------------|
D----------5p0------5------------5p0-----5------------5p0------5--8--10---|
A--------------5p0--5----------------5p0-5----------------5p0--5--8--10---|
E-------------------3--------------------0---------------------0--6--8----|


Back into chorus riff


Clean part:
E-------------10--11p10-------|
B----------11-----------11----|
G--12~--12--------------------|
D-----------------------------|
A-----------------------------|
E-----------------------------|

Chorus riff again, except end on:

E------------10----------|
B--8~--------13b15r13----|
G--10b12~----------------|
D------------------------|
A------------------------|
E------------------------|

E--6-------6-------6-------6-----------0-5-6-0-6-8-0-8-10-0-10-11-0-11-13-15~--|
B----8p6p0---8p6p0---8p6p0---8p6p0-8-------------------------------------------|
G------------------------------------7-----------------------------------------|
D------------------------------------------------------------------------------|
A------------------------------------------------------------------------------|
E------------------------------------------------------------------------------|

E--------6---------------6--------5-6-0-6-8-0-8-10-0-10-11-0-11-13-15~----|
B--8-6-8---8-6-8~--8-6-8---8-6-8------------------------------------------|
G-------------------------------------------------------------------------|
D-------------------------------------------------------------------------|
A-------------------------------------------------------------------------|
E-------------------------------------------------------------------------|

Back to delay intro…


Then play this a few times:
E--6----------|
B----8p6p0----|
G-------------|
D-------------|
A-------------|
E-------------|

E---0-0-0---0-0-0---0-0-0---0-0-0--0-0-0-0----|
B---8-8-11--8-8-11--8-8-11--8-8-11-8-0-6-8----|
G---------------------------------------------|
D---------------------------------------------|
A---------------------------------------------|
E---------------------------------------------|

Back into chorus riff

Second time, changes to this:

E------------------------------------------------------------6----10-------|
B--------------0---4h6-4-0------0---4h6p0----------------------8--13b15----|
G--10--------0---0------------0---0--------10-8-----10-7/8-----------------|
D--12--------------------------------------------8---------8---------------|
A--------------------------------------------------------------------------|
E--------------------------------------------------------------------------|


Play twice
E----------------------|
B--15--13--10--10/11---|
G--12--12--12--12------|
D----------------------|
A----------------------|
E----------------------|

Then:

E-----------------------------------------------------------------------|
B--8--------8------8----8------8------8----8----8-----------------------|
G--10b12----10b12--b12--b12----10b12--b12--b12--b12---------------------|
D----------------------------------------------------11-10-8-10*-8-7----|
A-----------------------------------------------------------------------|
E-----------------------------------------------------------------------|

(Play twice, there’s a pinch the second time around)
E-----------------------------------------------------------------------|
B-----------------------------------------------------------------6-----|
G-----------------------------------------------------------------5-----|
D--5--------------------------------------------------------------------|
A--5--------------------------------------------------------------------|
E--0--0-6p0-6h8-0-8b9-0-6p0-6h8-0-8b9-0-6p0-6h8-0-8b9-0-6p0-9-8-6-------|


She Sings In The Morning:

E--
B--12--12-12-14--17p14p12--17p14p12h14h17p14h17p14p12----17-14-12h14p12-|
G-------------------------------------------------------14--------------|
D--
A--
E--

E-------12----|--------------------------------12------12------10-9-7-9-9--|
B--9-10-------|----12b^14r12p10--12p10p9--9-10----9-10----9-10-------------|
G-------------|------------------------------------------------------------|
D-------------|------------------------------------------------------------|
A-------------|------------------------------------------------------------|
E-------------|------------------------------------------------------------|

E-----9-----7-9---7-9---7-9----9---------|
B--10---10------7-----7--------12b^14----|
G----------------------------------------|
D----------------------------------------|
A----------------------------------------|
E----------------------------------------|

Variation in chorus lead:

E-------------------|
B-------------------|
G--14--13-----------|
D----------14-------|
A--------------0----|
E-------------------|

DRELLA:
Tuning: Drop D

Guitar 1
E--------------------------------------------------------------------------|
B--------------------------------------------------------------------------|
G--10-10-10-10---9--7\----10-10-10-10---9--10\------10-10-10-10---9--7\----|
D--12-12-12-12--10--8\----12-12-12-12--10--12\------12-12-12-12--10--8\----|
A--------------------------------------------------------------------------|
E--------------------------------------------------------------------------|

E-------------------------|
B-------------------------|
G--10-10-10-10---9--7\----|
D--12-12-12-12--10--8\----|
A-------------------------|
E-------------------------|

Guitar 2 (Repeat 1st part over and over)
E------------------------------------------------------------------------|
B------------------------------------------------------------------------|
G-------------------------------------17p15p0--15p14p0--14p12p0--12--10--|
D--10h12p0h10h12p0h10h12p0h10h12p0---------------------------------------|
A------------------------------------------------------------------------|
E------------------------------------------------------------------------|


Guitar 3:
E----------------------------------------------------------------------------------|
B----------------------------------------------------------------------------------|
G---------------------------------------------------14p12p0--12p10p0--10p9p0--9-7--|
D--5h7p05h7p0h5h7p0h5h7p0--7h8p0h7h8p0h7h8p0h7h8p0---------------------------------|
A----------------------------------------------------------------------------------|
E----------------------------------------------------------------------------------|


Guitar 1 Continues, along with:

E----------------------------------------------------------------------------|
B--11-11-----------11--10-10---------10--10--10----------10--8-8--------8----|
G--------10-----10-----------10---10-----10-----10----10---------9----9------|
D------------8------------------8--------10--------10--------------10--------|
A----------------------------------------8-----------------------------------|
E----------------------------------------------------------------------------|

Second time end on:

E--
B---8~
G---9~
D--10~
A--
E--

Chorus:

E---------17----15----13----12----------12b^14r12--|
B---------------------------------12---------------|
G--/14-14----14----14----14----14----14------------|
D--------------------------------------------------|
A--------------------------------------------------|
E--------------------------------------------------|

E---------17----15----13----12----13------13b^15r13--|
B----------------------------------------------------|
G--/14-14----14----14----14----14----14--------------|
D----------------------------------------------------|
A----------------------------------------------------|
E----------------------------------------------------|

E--------------17-17-------------------17-17----------|
B--------15-15-------15-15-------15-15-------15-15----|
G--15-15-------------------15-15----------------------|
D-----------------------------------------------------|
A-----------------------------------------------------|
E-----------------------------------------------------|

E--------------------------------|
B--------------------------------|
G--------------------------------|
D--0---7--5--0--3h5--0--1-1-1----|
A--0---7--5--0--3h5--0--1-1-1----|
E--0---7--5--0--3h5--0--1-1-1----|


E--------------------------------------------------------------------------------|
B--------------------------------------------------------------------------------|
G------------------------------------------------------------------10-10--9-9----|
D--0----0----0-0-3-0----0----0----0-0-5-0----0----0-----------0----x--x---x-x----|
A--0----0----0-0-0-0----0----0----0-0-0-0----0----0--------8--0----8--8---7-7----|
E--0----0----0-0-0-0----0----0----0-0-0-0----0----0----0h5----0------------------|

2nd time end on:

E------5-----5----|
B----6-----6------|
G--7-----6--------|
D-----------------|
A-----------------|
E-----------------|


E---------------------------------------------------------------------|
B--6----6---6---6---6---6---6---6---6----6---6---6---6---6---6---6----|
G--7--7---7---7---7---7---7---7-----9--9---9---9---9---9---9---9---9--|
D---------------------------------------------------------------------|
A---------------------------------------------------------------------|
E---------------------------------------------------------------------|

E---------------------------------------------------------------------|
B--10-----------10----------10----------10--------10---------10-------|
G--10-----10----------10----------10-------10-----10----10------10----|
D--10--10----10----10----10----10----10-------10--8---8----8-------8--|
A---------------------------------------------------------------------|
E---------------------------------------------------------------------|

E----------------12p10-------------------------------------------------------|
B----------10----------10----10-----------10----------10-----------10--------|
G-------10----10-------------10-----10----------10----------10--------10-----|
D--8/11----------------------12--12----12----12----12----12-----12-------12--|
A----------------------------------------------------------------------------|
E----------------------------------------------------------------------------|

E--------------------------------------------------------------------------------|
B--6----6---6---6---8---8---8---8----8---8-----8----8----8----10----10----10-----|
G--9--9---9---9---9---9---9---9---9-----10--10---10---10---10----10----10----10--|
D--------------------------------------------------------------------------------|
A--------------------------------------------------------------------------------|
E--------------------------------------------------------------------------------|

E--------------------------------|
B--10------11-11-11-11-----------|
G-----10---10-10-10-10-----------|
D-----------------------7--7--7--|
A-----------------------7--7--7--|
E-----------------------7--7--7--|

Back to chorus x 2

Then:

E---------------------------------------------------------------|
B---------------------------------------------------------------|
G---------------------------------------------------------------|
D--0--0--0-0-0----0--0--0-0-0----0--0--0-0-0----0--0----0--0----|
A--0--0--0-0-0----0--0--0-0-0----0--0--0-0-0----0--0----0--0----|
E--0--0--0-0-0----0--0--0-0-0----0--0--0-0-0----0--0----0--0----|

E--------------------------------|
B--6~----6~----6~----10~---8~----|
G--7~----9~----5~----10~--10~----|
D--7~----7~----7~----10~--10~----|
A--------------------------------|
E--------------------------------|

Back to chorus

Final riff in last chorus:

E-------------------------------------------------------------|
B--10-10-10--8-8-8--------------------------------------------|
G-------------------10-10-10--9-9-9--7-7-7--------------------|
D------------------------------------------10-10-10b^12r10----|
A-------------------------------------------------------------|
E-------------------------------------------------------------|

E--13-------13-------13-------13--------12-------12-------15-------15--------|
B-----15-------15-------15-------15--------13-------13-------13-------13-----|
G--------14-------14-------14-------14--------14-------14-------14-------14--|
D----------------------------------------------------------------------------|
A----------------------------------------------------------------------------|
E----------------------------------------------------------------------------|
comments
print report bad tab
6 comments total. Showing first comments.
0 reply
brdrhppr wrote on January 15 2008, 02:13 am

I LOVE YOU!

i didnt try it out yet and iono how correct it is

BUT I STILL FUCKING LOVE YOU.

0 reply
brdrhppr wrote on January 15 2008, 02:16 am

AWWWW

theres no wonderless or fall asleep on a stranger
):

0 reply
mackenzieee wrote on April 6 2008, 06:10 pm

O_O why would you put tune your low e one and half steps down because for some reason i doubt thats right
and why wouldnt you put d flat

I want to post or [tab]
guest
You may want to rate the tab now too:
select rating
Please do not post tabs as comments. Select "correction" instead!