Oops, an error
Loading. Please wait.

Bulls In The Bronx Tab

ver2
ver2

Intro

Solo

Whole song

Interactive

More versions @911Tabs.com
31,530 views 117 this week
7 commentsread comments
1 2 3 4 5
accurate
x 12
Autoscroll
+/-
esc
set tempo
stop
Difficulty
Tuning
intermediate
C# G# C# F# A# D#
Hey! There's an official Ultimate Guitar app which is ideal
for learning songs when you're away from computer. Get the app
WARNING: You are trying to view
                                    content from Ultimate-Guitar.com
                                    in an unauthorized application,
                                    which is prohibited.

                                    Please use an official Ultimate
                                    Guitar Tabs application for iPhone,
                                    iPad or Android to access legitimate
                                    chords, guitar, bass, and drum tabs
                                    from Ultimate-Guitar.com database.

                                    Type "ultimate guitar tabs" in Apple
                                    App Store's or Android Market's
                                    search to find the application.
-----------------------------------------------------------------------------
                             BULLS IN THE BRONX – Pierce The Veil
-----------------------------------------------------------------------------
Tabbed by: Luko Swan
E-mail:lukoswan@live.com

Tuning: Drop C#

Intro:
e|--------------------------------------------------------------------------|
B|--------------------------------------------------------------------------|
G|--------------------------------------------------------------------------|
D|--------------------------------------------------------------------------|
A|--/5-1------1-----/5-1------1-----/3----------------/3--------------------|
E|0------0--5-----0------0--5-----0----8--0--4--8---0----8---0-4-8----------|

e|--------------------------------------------------------------------------|
B|--------------------------------------------------------------------------|
G|-------------------------------8-8-8-8-8-8-8-8----------------------------|
D|-------------------------------8-8-8-8-8-8-8-8----------------------------|
A|--/5-1------1-----/5-1------1--6-6-6-6-6-6-6-6--8-8-8888-8----------------|
E|0------0--5-----0------0--5---------------------8-8-8888-8----------------|
                                                      ****
Verse 1:
e|--------------------------------------------------------------------------|
B|--------------------------------------------------------------------------|
G|--------------------------------------------------------------------------|
D|--------------------------------------------------------------------------|
A|--/5-1------1-----/5-1------1-----/3----------------/3--------------------|
E|0------0--5-----0------0--5-----0----8--0--4--8---0----8---0-4-8----------|

e|--------------------------------------------------------------------------|
B|--------------------------------------------------------------------------|
G|--------------------------------------------------------------------------|
D|--------------------------------------------------------------------------|
A|--/5-1------1-----/5-1------1-----/3----------------/3--------------------|
E|0------0--5-----0------0--5-----0----8--0--4--8---0----8---0-4-8----------|

e|--------------------------------------------------------------------------|
B|--------------------------------------------------------------------------|
G|--------------------------------------------------------------------------|
D|--------------------------------------------------------------------------|
A|-*b5-*b1-----1--*b5-*b1------1---*b3----------------*b3-------------------|
E|0--------0-5---0--------0--5----0---*b7--0--4--8---0---*b7--0--4--8-------|

e|--------------------------------------------------------------------------|
B|--------------------------------------------------------------------------|
G|--------------------------------------------------------------------------|
D|--------------------------------------------------------------------------|
A|--------------------------------------------------------------------------|
E|0-/12b13b12b13--0-/12b13b12b13--0-/11b12b11b12--0-------------------------|

Chorus:
e|--------------------------------------------------------------------------|
B|--------------------------------------------------------------------------|
G|---------------------------------8-8-8-8-8-8-8-8-8--1010101010101010------|
D|5-5-5-5--------------------------8-8-8-8-8-8-8-8-8--7-7-7-7-7-7-7-7-------|
A|5-5-5-5-8-8-8-8---------5-5-5-5--6-6-6-6-6-6-6-6-6--8-8-8-8-8-8-8-8-------|
E|5-5-5-5---------8-8-8-8---------------------------------------------------|
          * * * * * * * * * * * * 
e|--------------------------------------------------------------------------|
B|--------------------------------------------------------------------------|
G|---------------------------------8-8-8-8-8-8-8-8-8--1010101010101010------|
D|5-5-5-5--------------------------8-8-8-8-8-8-8-8-8--7-7-7-7-7-7-7-7-------|
A|5-5-5-5-8-8-8-8---------5-5-5-5--6-6-6-6-6-6-6-6-6--8-8-8-8-8-8-8-8-------|
E|5-5-5-5---------8-8-8-8---------------------------------------------------|
          * * * * * * * * * * * *
e|--------------------------------------------------------------------------|
B|--------------------------------------------------------------------------|
G|--------------------------------------------------------------------------|
D|1-1-1-1-1-1-1-1-4-4-4-4-4-4-4-4-------------------------------------------|
A|1-1-1-1-1-1-1-1-4-4-4-4-4-4-4-4-------------------------------------------|
E|1-1-1-1-1-1-1-1-4-4-4-4-4-4-4-4-------------------------------------------|

Verse 2:
e|--------------------------------------------------------------------------|
B|--------------------------------------------------------------------------|
G|--------------------------------------------------------------------------|
D|--------------------------------------------------------------------------|
A|--/5-1------1-----/5-1------1-----/3----------------/3--------------------|
E|0------0--5-----0------0--5-----0----8--0--4--8---0----8---0-4-8----------|

e|--------------------------------------------------------------------------|
B|--------------------------------------------------------------------------|
G|--------------------------------------------------------------------------|
D|---------------------------------0----------------------------------------|
A|--/5-1------1-----/5-1------1----0----------------------------------------|
E|0------0--5-----0------0--5------0----------------------------------------|

e|--------------------------------------------------------------------------|
B|--------------------------------------------------------------------------|
G|--------------------------------------------------------------------------|
D|--------------------------------------------------------------------------|
A|--/5-1------1-----/5-1------1-----/3----------------/3--------------------|
E|0------0--5-----0------0--5-----0----8--0--4--8---0----8---0-4-8----------|

Chorus:
e|--------------------------------------------------------------------------|
B|--------------------------------------------------------------------------|
G|---------------------------------8-8-8-8-8-8-8-8-8--1010101010101010------|
D|5-5-5-5--------------------------8-8-8-8-8-8-8-8-8--7-7-7-7-7-7-7-7-------|
A|5-5-5-5-8-8-8-8---------5-5-5-5--6-6-6-6-6-6-6-6-6--8-8-8-8-8-8-8-8-------|
E|5-5-5-5---------8-8-8-8---------------------------------------------------|
          * * * * * * * * * * * *
e|--------------------------------------------------------------------------|
B|--------------------------------------------------------------------------|
G|---------------------------------8-8-8-8-8-8-8-8-8--1010101010101010------|
D|5-5-5-5--------------------------8-8-8-8-8-8-8-8-8--7-7-7-7-7-7-7-7-------|
A|5-5-5-5-8-8-8-8---------5-5-5-5--6-6-6-6-6-6-6-6-6--8-8-8-8-8-8-8-8-------|
E|5-5-5-5---------8-8-8-8---------------------------------------------------|
          * * * * * * * * * * * *
e|--------------------------------------------------------------------------|
B|--------------------------------------------------------------------------|
G|--------------------------------------------------------------------------|
D|1-1-1-1-1-1-1-1-1-1-1-1-1-1-1-1-5-5-5-5-5-5-5-5-4-4-4-4-4--0-0-0----------|
A|1-1-1-1-1-1-1-1-1-1-1-1-1-1-1-1-5-5-5-5-5-5-5-5-4-4-4-4-4--0-0-0----------|
E|1-1-1-1-1-1-1-1-1-1-1-1-1-1-1-1-5-5-5-5-5-5-5-5-4-4-4-4-4--0-0-0----------|
                                                             * * *
e|--------------------------------------------------------------------------|
B|--------------------------------------------------------------------------|
G|--------------------------------------------------------------------------|
D|1-1-1-1-1-1-1-1-1-1-1-1-1-1-1-1--4--4--4--4--4--4--4--4--5\0--------------|
A|1-1-1-1-1-1-1-1-1-1-1-1-1-1-1-1--4--4--4--4--4--4--4--4--5\0--------------|
E|1-1-1-1-1-1-1-1-1-1-1-1-1-1-1-1--4--4--4--4--4--4--4--4--5\0--------------|

Spanish Interlude, Pt. 1:
e|----------------5---5---6---6-------------------5---5---6---6-------------|
B|3---3---7---7----7---7---8---8--3---3---7---7----7---7---8---8------------|
G|-3---3---5---5----7---7---7---7--3---3---5---5----7---7---7---7-----------|
D|--5---5---7---7-------------------5---5---7---7---------------------------|
A|--------------------------------------------------------------------------|
E|--------------------------------------------------------------------------|

e|10------10-9-8-----8-----11-----11-----10--------------10------10-13-12---|
B|--11--11------10----10-----10-----10-----11---10-11-13---11--11-----------|
G|----12----------11----11-----11-----11-----12--------------12-------------|
D|--------------------------------------------------------------------------|
A|--------------------------------------------------------------------------|
E|--------------------------------------------------------------------------|

e|11------11-----8-----------8-----10-18\-----------------------------------|
B|--10--10--10----10---10-11-----11-----------------------------------------|
G|----11-----11----11---------12--------------------------------------------|
D|--------------------------------------------------------------------------|
A|--------------------------------------------------------------------------|
E|--------------------------------------------------------------------------|

Spanish Interlude, Solo(Capo on 3rd Fret):
e|--------------------------------------------------------------------------|
B|8-5-0-8-5-0-8-5-0-8-5-0-8-5-0--7-4-0-7-4-0-7-4-0-7-4-0--13-10-0-13-10-0-13|
G|--------------------------------------------------------------------------|
D|--------------------------------------------------------------------------|
A|--------------------------------------------------------------------------|
E|--------------------------------------------------------------------------|
  * * * * * * * * * * * * * * *  * * * * * * * * * * * *  *   *  * *  *  * *
e|--------------------------------------------------------------------------|
B|-10-0-13-10-0-13-10-0--18-11-0-18-11-0-18-11-0-19-11-0--------------------|
G|--------------------------------------------------------------------------|
D|--------------------------------------------------------------------------|
A|--------------------------------------------------------------------------|
E|--------------------------------------------------------------------------|
   *  *  *  * *  *  * *   *  * *  *  * *  *  * *  *  * *
e|--------------------------------------------------------------------------|
B|11h13-14-~13-11h13-14-~13--13-14-13---------------------------------------|
G|-----------------------------------14-12-11-12-~12------------------------|
D|--------------------------------------------------------------------------|
A|--------------------------------------------------------------------------|
E|--------------------------------------------------------------------------|

Bridge:
e|--------------------------------------------------------------------------|
B|--------------------------------------------------------------------------|
G|--------------------------------------------------------------------------|
D|8p0-5p0-8p0-5p0-8p0-5p0-8p0-5p0--7p0-4p0-7p0-4p0-7p0-4p0-7p0-4p0----------|
A|--------------------------------------------------------------------------|
E|--------------------------------------------------------------------------|

e|--------------------------------------------------------------------------|
B|--------------------------------------------------------------------------|
G|--------------------------------------------------------------------------|
D|10p0-7p0-10p0-7p0-10p0-7p0-10p0-7p0-8p0-5p0-8p0-5p0-7p0-4p0-7p0-4p0-------|
A|--------------------------------------------------------------------------|
E|--------------------------------------------------------------------------|

e|--------------------------------------------------------------------------|
B|--------------------------------------------------------------------------|
G|--------------------------------------------------------------------------|
D|1-1-1-1-1-1-1-1-1-1-1-1-1-1-1-1-3-3-3-3-3-3-3-3-3-3-3-3-3-3-3-3-----------|
A|1-1-1-1-1-1-1-1-1-1-1-1-1-1-1-1-3-3-3-3-3-3-3-3-3-3-3-3-3-3-3-3-----------|
E|1-1-1-1-1-1-1-1-1-1-1-1-1-1-1-1-3-3-3-3-3-3-3-3-3-3-3-3-3-3-3-3-----------|
  * * * * * * * * * * * * * * * * * * * * * * * * * * * * * * * *
e|--------------------------------------------------------------------------|
B|--------------------------------------------------------------------------|
G|--------------------------------------------------------------------------|
D|4-4-4-4-4-4-4-4-4-4-4-4-4-4-4-4-5-5-5-5-5-5-5-5-3-3-3-3-3-3-3-3-----------|
A|4-4-4-4-4-4-4-4-4-4-4-4-4-4-4-4-5-5-5-5-5-5-5-5-3-3-3-3-3-3-3-3-----------|
E|4-4-4-4-4-4-4-4-4-4-4-4-4-4-4-4-5-5-5-5-5-5-5-5-3-3-3-3-3-3-3-3-----------|
  * * * * * * * * * * * * * * * * * * * * * * * * * * * * * * * *
e|--------------------------------------------------------------------------|
B|--------------------------------------------------------------------------|
G|--------------------------------------------------------------------------|
D|1-1-1-1-1-1-1-1--1-1-1-1-1-1-1-1--3-3-3-3-3-3-3-3--3-3-3-3-3-3-3-3--------|
A|1-1-1-1-1-1-1-1--1-1-1-1-1-1-1-1--3-3-3-3-3-3-3-3--3-3-3-3-3-3-3-3--------|
E|1-1-1-1-1-1-1-1--1-1-1-1-1-1-1-1--3-3-3-3-3-3-3-3--3-3-3-3-3-3-3-3--------|
  * * * *   * * *  * * * *   * * *  * * * *   * * *  * * * *   * * *
e|--------------------------------------------------------------------------|
B|--------------------------------------------------------------------------|
G|--------------------------------------------------------------------------|
D|0-0-0-0-0-0-0--0-0-0-0-0-0-0-0--0-0-0-0-0-0-0-0-0-0-0-0-0-0-0-0-0---------|
A|0-0-0-0-0-0-0--0-0-0-0-0-0-0-0--0-0-0-0-0-0-0-0-0-0-0-0-0-0-0-0-0---------|
E|0-0-0-0-0-0-0--0-0-0-0-0-0-0-0--0-0-0-0-0-0-0-0-0-0-0-0-0-0-0-0-0---------|
  * * * *   * *  * * * *   * * *  * * * * * * * * 
[Guitar 2, Capo at 3rd Fret]:
e|--------------------------------------------------------------------------|
B|8p0-5p0-8p0-5p0-8p0-5p0-8p0-5p0--7p0-4p0-7p0-4p0-7p0-4p0-7p0-4p0----------|
G|--------------------------------------------------------------------------|
D|--------------------------------------------------------------------------|
A|--------------------------------------------------------------------------|
E|--------------------------------------------------------------------------|

e|--------------------------------------------------------------------------|
B|10p0-7p0-10p0-7p0-10p0-7p0-10p0--8p0-5p0-8p0-5p0-7p0-4p0-7p0-4p0----------|
G|--------------------------------------------------------------------------|
D|--------------------------------------------------------------------------|
A|--------------------------------------------------------------------------|
E|--------------------------------------------------------------------------|

e|--------------------------------------------------------------------------|
B|8p0-5p0-8p0-5p0-8p0-5p0-8p0-5p0--7p0-3p0-7p0-3p0-7p0-3p0-7p0-3p0----------|
G|--------------------------------------------------------------------------|
D|--------------------------------------------------------------------------|
A|--------------------------------------------------------------------------|
E|--------------------------------------------------------------------------|

e|--------------------------------------------------------------------------|
B|10p0-7p0-10p0-7p0-10p0-7p0-10p0--12p0-8p0-12p0-8p0-10p0-7p0-10p0-7p0------|
G|--------------------------------------------------------------------------|
D|--------------------------------------------------------------------------|
A|--------------------------------------------------------------------------|
E|--------------------------------------------------------------------------|

e|--------------------------------------------------------------------------|
B|8p0-5p0-8p0-5p0-8p0-5p0-8p0-5p0--7p0-3p0-7p0-3p0-7p0-3p0-7p0-3p0----------|
G|--------------------------------------------------------------------------|
D|--------------------------------------------------------------------------|
A|--------------------------------------------------------------------------|
E|--------------------------------------------------------------------------|

e|--------------------------------------------------------------------------|
B|10p0-7p0-10p0-7p0-10p0-7p0-10p0-------------------------------------------|
G|---------------------------------111111111111111114-14-14-14-14-14-14-14--|
D|---------------------------------x-x-x-x-x-x-x-x-x--x--x--x--x--x--x--x---|
A|---------------------------------9-9-9-9-9-9-9-9-12-12-12-12-12-12-12-12--|
E|--------------------------------------------------------------------------|

Chorus:
e|--------------------------------------------------------------------------|
B|--------------------------------------------------------------------------|
G|---------------------------------8-8-8-8-8-8-8-8-8--1010101010101010------|
D|5-5-5-5--------------------------8-8-8-8-8-8-8-8-8--7-7-7-7-7-7-7-7-------|
A|5-5-5-5-8-8-8-8---------5-5-5-5--6-6-6-6-6-6-6-6-6--8-8-8-8-8-8-8-8-------|
E|5-5-5-5---------8-8-8-8---------------------------------------------------|
          * * * * * * * * * * * * 
e|--------------------------------------------------------------------------|
B|--------------------------------------------------------------------------|
G|---------------------------------8-8-8-8-8-8-8-8-8--1010101010101010------|
D|5-5-5-5--------------------------8-8-8-8-8-8-8-8-8--7-7-7-7-7-7-7-7-------|
A|5-5-5-5-8-8-8-8---------5-5-5-5--6-6-6-6-6-6-6-6-6--8-8-8-8-8-8-8-8-------|
E|5-5-5-5---------8-8-8-8---------------------------------------------------|
          * * * * * * * * * * * *
e|--------------------------------------------------------------------------|
B|--------------------------------------------------------------------------|
G|--------------------------------------------------------------------------|
D|1-1-1-1-1-1-1-1-1-1-1-1-1-1-1-1-5-5-5-5-5-5-5-5-4-4-4-4-4--0-0-0----------|
A|1-1-1-1-1-1-1-1-1-1-1-1-1-1-1-1-5-5-5-5-5-5-5-5-4-4-4-4-4--0-0-0----------|
E|1-1-1-1-1-1-1-1-1-1-1-1-1-1-1-1-5-5-5-5-5-5-5-5-4-4-4-4-4--0-0-0----------|
                                                             * * *
e|--------------------------------------------------------------------------|
B|--------------------------------------------------------------------------|
G|--------------------------------------------------------------------------|
D|1-1-1-1-1-1-1-1-1-1-1-1-1-1-1-1-5-5-5-5-5-5-5-5-3-------------------------|
A|1-1-1-1-1-1-1-1-1-1-1-1-1-1-1-1-5-5-5-5-5-5-5-5-3-------------------------|
E|1-1-1-1-1-1-1-1-1-1-1-1-1-1-1-1-5-5-5-5-5-5-5-5-3-------------------------|

Outro:
e|--------------------------------------------------------------------------|
B|--------------------------------------------------------------------------|
G|--------------------------------------------------------------------------|
D|11-1-1-11-1-1-11-1--11-1-1-11-1-1-11-1------------------------------------|
A|11-1-1-11-1-1-11-1--11-1-1-11-1-1-11-1------------------------------------|
E|11-1-1-11-1-1-11-1--11-1-1-11-1-1-11-1------------------------------------|
  **     **     **    **     **     **
e|--------------------------------------------------------------------------|
B|--------------------------------------------------------------------------|
G|--------------------------------------------------------------------------|
D|55-5-5-55-5-5-55-5--33-3-3-33-3-3-33-3------------------------------------|
A|55-5-5-55-5-5-55-5--33-3-3-33-3-3-33-3------------------------------------|
E|55-5-5-55-5-5-55-5--33-3-3-33-3-3-33-3------------------------------------|
  **     **     **    **     **     ** 
e|--------------------------------------------------------------------------|
B|--------------------------------------------------------------------------|
G|--------------------------------------------------------------------------|
D|11-1-1-11-1-1-11-1--11-1-1-11-1-1-11-1------------------------------------|
A|11-1-1-11-1-1-11-1--11-1-1-11-1-1-11-1------------------------------------|
E|11-1-1-11-1-1-11-1--11-1-1-11-1-1-11-1------------------------------------|
  **     **     **    **     **     **
e|--------------------------------------------------------------------------|
B|--------------------------------------------------------------------------|
G|--------------------------------------------------------------------------|
D|55-5-5-55-5-5-55-5--33-3-3-33-3-3-33-3------------------------------------|
A|55-5-5-55-5-5-55-5--33-3-3-33-3-3-33-3------------------------------------|
E|55-5-5-55-5-5-55-5--33-3-3-33-3-3-33-3------------------------------------|
  **     **     **    **     **     ** 
e|--------------------------------------------------------------------------|
B|--------------------------------------------------------------------------|
G|--------------------------------------------------------------------------|
D|11-1-1-11-1-1-11-1--11-1-1-11-1-1-11-1------------------------------------|
A|11-1-1-11-1-1-11-1--11-1-1-11-1-1-11-1------------------------------------|
E|11-1-1-11-1-1-11-1--11-1-1-11-1-1-11-1------------------------------------|
  **     **     **    **     **     **
e|--------------------------------------------------------------------------|
B|--------------------------------------------------------------------------|
G|--------------------------------------------------------------------------|
D|55-5-5-55-5-5-55-5--33-3-3-33-3-3-33-3------------------------------------|
A|55-5-5-55-5-5-55-5--33-3-3-33-3-3-33-3------------------------------------|
E|55-5-5-55-5-5-55-5--33-3-3-33-3-3-33-3------------------------------------|
  **     **     **    **     **     ** 

e|--------------------------------------------------------------------------|
B|--------------------------------------------------------------------------|
G|--------------------------------------------------------------------------|
D|11-1-1-11-1-1-11-1--11-1-1-11-1-1-11-1------------------------------------|
A|11-1-1-11-1-1-11-1--11-1-1-11-1-1-11-1------------------------------------|
E|11-1-1-11-1-1-11-1--11-1-1-11-1-1-11-1------------------------------------|
  **     **     **    **     **     **
e|--------------------------------------------------------------------------|
B|--------------------------------------------------------------------------|
G|--------------------------------------------------------------------------|
D|55-5-5-55-5-5-55-5-------------1------------------------------------------|
A|55-5-5-55-5-5-55-5---1-3--1-3--1------------------------------------------|
E|55-5-5-55-5-5-55-5--5----3-----1------------------------------------------|
  **     **     **   

************************************

| /   slide up
| \   slide down
| h   hammer-on
| p   pull-off
| ~   vibrato
| +   harmonic
| x   Mute note
| b   Bend
| pb  Pre-bend
| br  Bend release
| pbr Pre-bend release
| brb Bend release bend
| *b  Pinch harmonic bend
| *   Palm mute
************************************
comments
print report bad tab
7 comments total. Showing first comments.
0 reply
shiffy wrote on September 8 2012, 02:47 am

Umm, it's ok, there's a really good guitar cover by dominiik1994 or something, he's also done a tutorial, which doesn't require a capo, try write the tabs from that, but other than that you got some of the parts right. Good try though

+1 reply
lukoswan wrote on September 15 2012, 12:24 pm

Yeah, I saw his vid 2 days after making the tab. He deserves the top spot out of all the BITB covers. And the only reason I used a capo was because Tony Perry is known for using capos in different parts of songs when in the studio.

-1 reply
xXlife=musicXx wrote on November 28 2012, 07:10 pm

Nice job, dude. Minor mistakes, but other than that, 5 stars. Well done.

I want to post or [tab]
guest
You may want to rate the tab now too:
select rating
Please do not post tabs as comments. Select "correction" instead!