Oops, an error
Loading. Please wait.

King For A Day Tab

ver1
ver1

Whole song

More versions @911Tabs.com
44,376 views 279 this week
no commentswrite comment
1 2 3 4 5
worth learning
x 5
Autoscroll
+/-
esc
set tempo
stop
Contributor
Difficulty
Tuning
novice
D A D G B E
WARNING: You are trying to view
                                    content from Ultimate-Guitar.com
                                    in an unauthorized application,
                                    which is prohibited.

                                    Please use an official Ultimate
                                    Guitar Tabs application for iPhone,
                                    iPad or Android to access legitimate
                                    chords, guitar, bass, and drum tabs
                                    from Ultimate-Guitar.com database.

                                    Type "ultimate guitar tabs" in Apple
                                    App Store's or Android Market's
                                    search to find the application.
----------------------------------------------------------------------------
                             King for A Day - Pierce The Veil
----------------------------------------------------------------------------
Tabbed by:steveyrem
E-mail:
Was Waiting for this and got it on the digital download at midnight in the
 uk , its an amazing song and worth every penny.just worked out the parts
 bellow by mistake. im not the bet at tabbing fidly lead parts which it is
 why its maily just the rhythm stuff , hope its ok and i know there will be
 a few errors as i did tab this at 1am

some of this may be wrong just send me the corrections i should change

Tuning: Drop D

intro

Verse

e|--------------------------------------------------------------------------|
B|--------------------------------------------------------------------------|
G|--------------------------------------------------------------------------|
D|--9--99-----9--99--------4--44-------4--44--------------------------------|
A|--9--99-----9--99--------4--44-------4--44--------------------------------|
E|--9--99-----9--99--------4--44-------4--44--------------------------------|

Pre Chorus "please wont you push me for the last time..."

e|------------------------------------------------------------------------|
B|-----------------------------------------------get strumming------------|
G|-----------------------------------------------patern from song---------|
D|99999999999999997777777777777777---------x2-----------------------------|
A|99999999999999997777777777777777----------------------------------------|
E|99999999999999997777777777777777----------------------------------------|


Chorus

e|------------------------------------------------------------------------|
B|------------------------------------------------------------------------|
G|------------------------------------------------------------------------|
D|-9999999999999999555555555555555522222222222222224444444444444444-------|
A|-9999999999999999555555555555555522222222222222224444444444444444-------|
E|-9999999999999999555555555555555522222222222222224444444444444444-------|


verse 2-primarily bass but has a riff of roughly
 this on the 2nd half
e|------------------------------------------------------------------------|
B|------------------------------------------------------------------------|
G|------------------------------------------------------------------------|
D|------------------------------------------------------------------------|
A|------------------------------------------------------------------------|
E|9x12x12x12x12x12x912912-9x12x12x12x12x12x912912-------------------------|

e|------------------------------------------------------------------------|
B|------------------------------------------------------------------------|
G|------------------------------------------------------------------------|
D|------------------------------------------------------------------------|
A|------------------------------------------------------------------------|
E|7x11x11x11x11x11x711711-7x11x11x11x11x11x711711-------------------------|


Pre chorus

Chorus x2

breakdown

e|------------------------------------------------------------------------|
B|------------------------------------------------------------------------|
G|------------------------------------------------------------------------|
D|--9---------------------------------------------------------------------|
A|--9---in the song they play this then let it ring a bit-----------------|
E|--9---------------------------------------------------------------------|

e|------------------------------------------------------------------------|
B|------------------------------------------------------------------------|
G|------------------------------------------------------------------------|
D|999999999999999999777777777777777777777777---builds using these chords--|
A|999999999999999999777777777777777777777777---briefly--------------------|
E|999999999999999999777777777777777777777777------------------------------|
plam muted

e|-------------------------------------------------------------------------|
B|-------------------------------------------------------------------------|
G|-------------------------------------------------------------------------|
D|9-999999---------9-999999-----------7-777777---------7-777777---------x4-|
A|9-999999---------9-999999-----------7-777777---------7-777777------------|
E|9-999999-9-11-12-9-999999-9-11-12---7-777777-9-11-12-7-777777-9--12ph----|
ph=pinch harmonic

chorus 3 for the first half it is basically the chords just played in quick
 stabs(get rhythm for song) but then returns to the normal
e|------------------------------------------------------------------------|
B|------------------------------------------------------------------------|
G|------------------------------------------------------------------------|
D|-9999999999999999555555555555555522222222222222224444444444444444-------|
A|-9999999999999999555555555555555522222222222222224444444444444444-------|
E|-9999999999999999555555555555555522222222222222224444444444444444-------|

there are a few stabs on the end which i was un able to work out which i think were

************************************

| /   slide up
| \   slide down
| h   hammer-on
| p   pull-off
| ~   vibrato
| +   harmonic
| x   Mute note
| b   Bend
| pb  Pre-bend
| br  Bend release
| pbr Pre-bend release
| brb Bend release bend

************************************
I want to post or [tab]
guest
You may want to rate the tab now too:
select rating
Please do not post tabs as comments. Select "correction" instead!