Oops, an error
Loading. Please wait.

King For A Day Tab

ver2
ver2

Intro

Whole song

Interactive

More versions @911Tabs.com
40,632 views 33 this week
1 commentread comment
1 2 3 4 5
accurate
x 9
Autoscroll
+/-
esc
set tempo
stop
Contributor
Difficulty
Tuning
novice
B F# B E G# C#
Hey! There's an official Ultimate Guitar app which is ideal
for learning songs when you're away from computer. Get the app
WARNING: You are trying to view
                                    content from Ultimate-Guitar.com
                                    in an unauthorized application,
                                    which is prohibited.

                                    Please use an official Ultimate
                                    Guitar Tabs application for iPhone,
                                    iPad or Android to access legitimate
                                    chords, guitar, bass, and drum tabs
                                    from Ultimate-Guitar.com database.

                                    Type "ultimate guitar tabs" in Apple
                                    App Store's or Android Market's
                                    search to find the application.
----------------------------------------------------------------------------
                            King for a Day
                            Pierce the Veil
----------------------------------------------------------------------------

This song is unbelievable. With Kellin Quinn, Pierce the Veil is a marvel and original.
The instrumentals in this song are very catchy, so if you are looking for a fun song to
play, this would be the one I would suggest. Enjoy!

Username: dkm817 (same on X box live)
Youtube Cover: http://www.youtube.com/watch?v=Cdf8jgdUekw
Email: guitardrums@rockfan.com

Guitar 1 Rhythmic (B  F# B  E  G# C#)
Guitar 2 Lead     (B  F# B  E  G# C#)

Tab Guide...
===================================================================
(end of measures)

===================================================================
===================================================================
(end of parts)

===================================================================
===================================================================
===================================================================
(end of song)
(If there is a “continued” it is because the numbers could not
fit on 1 line or connecting times played.)


Intro

Guitar 1
C#-----------------------------------------------------------------|
G#-------------------------8~~~~~~-10~~~~~-11~~~~~-10~~~~~-9~~~~~~-|
E -7~~~~~~-9~~~~~~-10~~~~~-----------------------------------------|
B -----------------------------------------------------------------|
F#-----------------------------------------------------------------|
B -----------------------------------------------------------------|

Guitar 2
C#-----------------------------------------------------------------|
G#-6---6---6---6---6---6---6---6---6---6---6---6---6---6---6---6---|
E -7---7---7---7---7---7---7---7---7---7---7---7---7---7---7---7---|
B -7---7---7---7---7---7---7---7---7---7---7---7---7---7---7---7---|
F#-----------------------------------------------------------------|
B -----------------------------------------------------------------|

===================================================================

Guitar 1
C#-----------------------------------------------------------------|
G#-8~~~~~~---------10~~~~~-9~~~~~~-8~~~~~~---------11~~~~~-10~~~~~-|
E ---------11~~~~~-------------------------11~~~~~-----------------|
B -----------------------------------------------------------------|
F#-----------------------------------------------------------------|
B -----------------------------------------------------------------|

Guitar 2
C#-----------------------------------------------------------------|
G#-5---5---5---5---5---5---5---5---5---5---5---5---5---5---5---5---|
E -6---6---6---6---6---6---6---6---6---6---6---6---6---6---6---6---|
B -7---7---7---7---7---7---7---7---7---7---7---7---7---7---7---7---|
F#-----------------------------------------------------------------|
B -----------------------------------------------------------------|

===================================================================
===================================================================


Verse 1

Guitar 1
C#-----------------------------------------------------------------|
G#-----------------------------------------------------------------|
E -----------------------------------------------------------------|
B -0~~~~~~-0---0-------------------0~~~~~~-0---0-------------------|
F#-0~~~~~~-0---0-------------------0~~~~~~-0---0-------------------|
B -0~~~~~~-0---0-------------------0~~~~~~-0---0-------------------|

Guitar 2
C#-----------------------------------------------------------------|
G#-6---6---6---6---6---6---6---6---6---6---6---6---6---6---6---6---|
E -7---7---7---7---7---7---7---7---7---7---7---7---7---7---7---7---|
B -7---7---7---7---7---7---7---7---7---7---7---7---7---7---7---7---|
F#-----------------------------------------------------------------|
B -----------------------------------------------------------------|

===================================================================

Guitar 1
C#-----------------------------------------------------------------|
G#-----------------------------------------------------------------|
E -6~~~~~~-6---6-------------------6~~~~~~-6---6-------------------|
B -x-------x---x-------------------x-------x---x-------------------|
F#-4~~~~~~-4---4-------------------4~~~~~~-4---4-------------------|
B -----------------------------------------------------------------|

Guitar 2
C#-----------------------------------------------------------------|
G#-5---5---5---5---5---5---5---5---5---5---5---5---5---5---5---5---|
E -6---6---6---6---6---6---6---6---6---6---6---6---6---6---6---6---|
B -7---7---7---7---7---7---7---7---7---7---7---7---7---7---7---7---|
F#-----------------------------------------------------------------|
B -----------------------------------------------------------------|

===================================================================

Guitar 1
C#-----------------------------------------------------------------|
G#-----------------------------------------------------------------|
E -----------------------------------------------------------------|
B -0~~~~~~-0---0-------------------0~~~~~~-0---0-------------------|
F#-0~~~~~~-0---0-------------------0~~~~~~-0---0-------------------|
B -0~~~~~~-0---0-------------------0~~~~~~-0---0-------------------|

Guitar 2
C#-----------------------------------------------------------------|
G#-6---6---6---6---6---6---6---6---6---6---6---6---6---6---6---6---|
E -7---7---7---7---7---7---7---7---7---7---7---7---7---7---7---7---|
B -7---7---7---7---7---7---7---7---7---7---7---7---7---7---7---7---|
F#-----------------------------------------------------------------|
B -----------------------------------------------------------------|

===================================================================

Guitar 1
C#-----------------------------------------------------------------|
G#-----------------------------------------------------------------|
E -6~~~~~~-6---6~~~~~~-10-10-10-10-9-9-9-9-7-7-7-7-9-9-9-9-9-9-9-9-|
B -x-------x---x---------------------------------------------------|
F#-4~~~~~~-4---4~~~~~~---------------------------------------------|
B -----------------------------------------------------------------|

Guitar 2
C#-----------------------------------------------------------------|
G#---------------------11-11-11-11-10-10-10-10-8-8-8-8-10-10-10-10-|
E -6~~~~~~-6---6~~~~~~---------------------------------------------|
B -x-------x---x---------------------------------------------------|
F#-4~~~~~~-4---4~~~~~~---------------------------------------------|
B -----------------------------------------------------------------|

===================================================================
===================================================================


Pre Chorus 1

Guitar 1 (x2)
C#-----------------------------------------------------------------|
G#-10--10--10--10--10--10--10--10--10--10--10--10--10--10--10--10--|
E -10--10--10--10--10--10--10--10--10--10--10--10--10--10--10--10--|
B -10--10--10--10--10--10--10--10--10--10--10--10--10--10--10--10--|
F#-8---8---8---8---8---8---8---8---8---8---8---8---8---8---8---8---|
B -----------------------------------------------------------------|

Guitar 2 (x2)
C#-----------------------------------------------------------------|
G#-10--10--10--10--10--10--10--10--10--10--10--10--10--10--10--10--|
E -x---x---x---x---x---x---x---x---x---x---x---x---x---x---x---x---|
B -7---7---7---7---7---7---7---7---7---7---7---7---7---7---7---7---|
F#-----------------------------------------------------------------|
B -----------------------------------------------------------------|

===================================================================

Guitar 1 (x2)
C#-----------------------------------------------------------------|
G#-13--13--13--13--13--13--13--13--13--13--13--13--13--13--13--13--|
E -12--12--12--12--12--12--12--12--12--12--12--12--12--12--12--12--|
B -10--10--10--10--10--10--10--10--10--10--10--10--10--10--10--10--|
F#-----------------------------------------------------------------|
B -----------------------------------------------------------------|

Guitar 2 (x2)
C#-----------------------------------------------------------------|
G#-8---8---8---8---8---8---8---8---8---8---8---8---8---8---8---8---|
E -x---x---x---x---x---x---x---x---x---x---x---x---x---x---x---x---|
B -5---5---5---5---5---5---5---5---5---5---5---5---5---5---5---5---|
F#-----------------------------------------------------------------|
B -----------------------------------------------------------------|

===================================================================

Guitar 1
C#-----------------------------------------------------------------|
G#-10--10--10--10--10--10--10--10--10--10--10--10--10--10--10--10--|
E -10--10--10--10--10--10--10--10--10--10--10--10--10--10--10--10--|
B -10--10--10--10--10--10--10--10--10--10--10--10--10--10--10--10--|
F#-8---8---8---8---8---8---8---8---8---8---8---8---8---8---8---8---|
B -----------------------------------------------------------------|

Guitar 2
C#-----------------------------------------------------------------|
G#-10--10--10--10--10--10--10--10--10--10--10--10--10--10--10--10--|
E -x---x---x---x---x---x---x---x---x---x---x---x---x---x---x---x---|
B -7---7---7---7---7---7---7---7---7---7---7---7---7---7---7---7---|
F#-----------------------------------------------------------------|
B -----------------------------------------------------------------|

===================================================================

Guitar 1
C#-----------------------------------------------------------------|
G#-10--10--10--10--10--10--10--10--10--10--10--10--10--10--10--10--|
E -10--10--10--10--10--10--10--10--10--10--10--10--10--10--10--10--|
B -10--10--10--10--10--10--10--10--10--10--10--10--10--10--10--10--|
F#-8---8---8---8---8---8---8---8---8---8---8---8---8---8---8---8---|
B -----------------------------------------------------------------|

Guitar 2
C#-----------------------------------------------------------------|
G#-11--11--11--11--11--11--11--11--10--10--10--10--10--10--10--10--|
E -x---x---x---x---x---x---x---x---x---x---x---x---x---x---x---x---|
B -8---8---8---8---8---8---8---8---7---7---7---7---7---7---7---7---|
F#-----------------------------------------------------------------|
B -----------------------------------------------------------------|

===================================================================

Guitar 1
C#-----------------------------------------------------------------|
G#-13--13--13--13--13--13--13--13--13--13--13--13--13--13--13--13--|
E -12--12--12--12--12--12--12--12--12--12--12--12--12--12--12--12--|
B -10--10--10--10--10--10--10--10--10--10--10--10--10--10--10--10--|
F#-----------------------------------------------------------------|
B -----------------------------------------------------------------|

Guitar 2
C#-----------------------------------------------------------------|
G#-8---8---8---8---8---8---8---8---8---8---8---8---8---8---8---8---|
E -x---x---x---x---x---x---x---x---x---x---x---x---x---x---x---x---|
B -5---5---5---5---5---5---5---5---5---5---5---5---5---5---5---5---|
F#-----------------------------------------------------------------|
B -----------------------------------------------------------------|

===================================================================

Guitar 1
C#-----------------------------------------------------------------|
G#-13--------------------------------------------------------------|
E -12--------------------------------------------------------------|
B -10--------------------------------------------------------------|
F#-----------------------------------------------------------------|
B -----------------------------------------------------------------|

Guitar 2
C#-----------------------------------------------------------------|
G#-8---------------------------------------------------------------|
E -x---------------------------------------------------------------|
B -5---------------------------------------------------------------|
F#-----------------------------------------------------------------|
B -----------------------------------------------------------------|

===================================================================
===================================================================


Chorus 1

Guitar 1
C#-----------------------------------------------------------------|
G#-----------------------------------------------------------------|
E -7---7---7---7---7---7---7---7---7---7---7---7---7---7---7---7---|
B -7---7---7---7---7---7---7---7---7---7---7---7---7---7---7---7---|
F#-5---5---5---5---5---5---5---5---5---5---5---5---5---5---5---5---|
B -----------------------------------------------------------------|

Guitar 2
C#-----------------------------------------------------------------|
G#-----------------------------------------------------------------|
E -10--10--10--10--10--10--10--10--10--10--10--10--10--10--10--10--|
B -x---x---x---x---x---x---x---x---x---x---x---x---x---x---x---x---|
F#-8---8---8---8---8---8---8---8---8---8---8---8---8---8---8---8---|
B -----------------------------------------------------------------|

===================================================================

Guitar 1
C#-----------------------------------------------------------------|
G#-----------------------------------------------------------------|
E -----------------------------------------------------------------|
B -8---8---8---8---8---8---8---8---8---8---8---8---8---8---8---8---|
F#-8---8---8---8---8---8---8---8---8---8---8---8---8---8---8---8---|
B -8---8---8---8---8---8---8---8---8---8---8---8---8---8---8---8---|

Guitar 2
C#-----------------------------------------------------------------|
G#-10--10--10--10--10--10--10--10--10--10--10--10--10--10--10--10--|
E -x---x---x---x---x---x---x---x---x---x---x---x---x---x---x---x---|
B -8---8---8---8---8---8---8---8---8---8---8---8---8---8---8---8---|
F#-----------------------------------------------------------------|
B -----------------------------------------------------------------|

===================================================================

Guitar 1
C#-----------------------------------------------------------------|
G#-----------------------------------------------------------------|
E -----------------------------------------------------------------|
B -5---5---5---5---5---5---5---5---5---5---5---5---5---5---5---5---|
F#-5---5---5---5---5---5---5---5---5---5---5---5---5---5---5---5---|
B -5---5---5---5---5---5---5---5---5---5---5---5---5---5---5---5---|

Guitar 2
C#-----------------------------------------------------------------|
G#-8---8---8---8---8---8---8---8---8---8---8---8---8---8---8---8---|
E -x---x---x---x---x---x---x---x---x---x---x---x---x---x---x---x---|
B -5---5---5---5---5---5---5---5---5---5---5---5---5---5---5---5---|
F#-----------------------------------------------------------------|
B -----------------------------------------------------------------|

===================================================================

Guitar 1
C#-----------------------------------------------------------------|
G#-----------------------------------------------------------------|
E -----------------------------------------------------------------|
B -7---7---7---7---7---7---7---7---7---7---7---7---7---7---x--x--x-|
F#-7---7---7---7---7---7---7---7---7---7---7---7---7---7---x--x--x-|
B -7---7---7---7---7---7---7---7---7---7---7---7---7---7---x--x--x-|

Guitar 2
C#-----------------------------------------------------------------|
G#-----------------------------------------------------------------|
E -9---9---9---9---9---9---9---9---9---9---9---9---9---9-----------|
B -x---x---x---x---x---x---x---x---x---x---x---x---x---x---x--x--x-|
F#-7---7---7---7---7---7---7---7---7---7---7---7---7---7---x--x--x-|
B ---------------------------------------------------------x--x--x-|

===================================================================
===================================================================


Bridge 1

Guitar 1
C#-----------------------------------------------------------------|
G#-----------------------------------------------------------------|
E -----------------------------------------------------------------|
B -----------------------------------------------------------------|
F#-----------------------------------------------------------------|
B -0~~~~~~-0-------------------------------------------------------|

Guitar 2 (x2)
C#-----------------------------------------------------------------|
G#-----------------------------------------------------------------|
E -----------------------------------------------------------------|
B -------------0---3---0---3---0---3---0---3---0---3---0---3---0---|
F#-----------------------------------------------------------------|
B -0~~~~~~-0-------------------------------------------------------|

===================================================================

Guitar 1 & 2 (x2)
C#-----------------------------------------------------------------|
G#-----------------------------------------------------------------|
E -----------------------------------------------------------------|
B -------------0---2---0---2---0---2---0---2---0---2---0---2---0---|
F#-----------------------------------------------------------------|
B -0~~~~~~-0-------------------------------------------------------|

===================================================================
===================================================================


Verse 2

Guitar 1 (x4)
C#-----------------------------------------------------------------|
G#-----------------------------------------------------------------|
E -----------------------------------------------------------------|
B -x-------x---x---x---x---x---x---x---x---x---x---x---x---x---x---|
F#-x-------x---x---x---x---x---x---x---x---x---x---x---x---x---x---|
B -x-------x---x---x---x---x---x---x---x---x---x---x---x---x---x---|

===================================================================

Guitar 1 & 2 (x2)
C#-----------------------------------------------------------------|
G#-----------------------------------------------------------------|
E -----------------------------------------------------------------|
B -------------0---3---0---3---0---3---0---3---0---3---0---3---0---|
F#-----------------------------------------------------------------|
B -0~~~~~~-0-------------------------------------------------------|

===================================================================

Guitar 1 & 2 (x2)
C#-----------------------------------------------------------------|
G#-----------------------------------------------------------------|
E -----------------------------------------------------------------|
B -------------0---2---0---2---0---2---0---2---0---2---0---2---0---|
F#-----------------------------------------------------------------|
B -0~~~~~~-0-------------------------------------------------------|

===================================================================
===================================================================

Pre Chorus 2

Guitar 1 (x2)
C#-----------------------------------------------------------------|
G#-10--10--10--10--10--10--10--10--10--10--10--10--10--10--10--10--|
E -10--10--10--10--10--10--10--10--10--10--10--10--10--10--10--10--|
B -10--10--10--10--10--10--10--10--10--10--10--10--10--10--10--10--|
F#-8---8---8---8---8---8---8---8---8---8---8---8---8---8---8---8---|
B -----------------------------------------------------------------|

===================================================================

Guitar 1 (x2)
C#-----------------------------------------------------------------|
G#-13--13--13--13--13--13--13--13--13--13--13--13--13--13--13--13--|
E -12--12--12--12--12--12--12--12--12--12--12--12--12--12--12--12--|
B -10--10--10--10--10--10--10--10--10--10--10--10--10--10--10--10--|
F#-----------------------------------------------------------------|
B -----------------------------------------------------------------|

Guitar 2 (x2)
C#-----------------------------------------------------------------|
G#-8---8---8---8---8---8---8---8---8---8---8---8---8---8---8---8---|
E -x---x---x---x---x---x---x---x---x---x---x---x---x---x---x---x---|
B -5---5---5---5---5---5---5---5---5---5---5---5---5---5---5---5---|
F#-----------------------------------------------------------------|
B -----------------------------------------------------------------|

===================================================================

Guitar 1
C#-----------------------------------------------------------------|
G#-10--10--10--10--10--10--10--10--10--10--10--10--10--10--10--10--|
E -10--10--10--10--10--10--10--10--10--10--10--10--10--10--10--10--|
B -10--10--10--10--10--10--10--10--10--10--10--10--10--10--10--10--|
F#-8---8---8---8---8---8---8---8---8---8---8---8---8---8---8---8---|
B -----------------------------------------------------------------|

Guitar 2
C#-----------------------------------------------------------------|
G#-10--10--10--10--10--10--10--10--10--10--10--10--10--10--10--10--|
E -x---x---x---x---x---x---x---x---x---x---x---x---x---x---x---x---|
B -7---7---7---7---7---7---7---7---7---7---7---7---7---7---7---7---|
F#-----------------------------------------------------------------|
B -----------------------------------------------------------------|

===================================================================

Guitar 1
C#-----------------------------------------------------------------|
G#-10--10--10--10--10--10--10--10--10--10--10--10--10--10--10--10--|
E -10--10--10--10--10--10--10--10--10--10--10--10--10--10--10--10--|
B -10--10--10--10--10--10--10--10--10--10--10--10--10--10--10--10--|
F#-8---8---8---8---8---8---8---8---8---8---8---8---8---8---8---8---|
B -----------------------------------------------------------------|

Guitar 2
C#-----------------------------------------------------------------|
G#-11--11--11--11--11--11--11--11--10--10--10--10--10--10--10--10--|
E -x---x---x---x---x---x---x---x---x---x---x---x---x---x---x---x---|
B -8---8---8---8---8---8---8---8---7---7---7---7---7---7---7---7---|
F#-----------------------------------------------------------------|
B -----------------------------------------------------------------|

===================================================================

Guitar 1
C#-----------------------------------------------------------------|
G#-13--13--13--13--13--13--13--13--13--13--13--13--13--13--13--13--|
E -12--12--12--12--12--12--12--12--12--12--12--12--12--12--12--12--|
B -10--10--10--10--10--10--10--10--10--10--10--10--10--10--10--10--|
F#-----------------------------------------------------------------|
B -----------------------------------------------------------------|

Guitar 2
C#-----------------------------------------------------------------|
G#-8---8---8---8---8---8---8---8---8---8---8---8---8---8---8---8---|
E -x---x---x---x---x---x---x---x---x---x---x---x---x---x---x---x---|
B -5---5---5---5---5---5---5---5---5---5---5---5---5---5---5---5---|
F#-----------------------------------------------------------------|
B -----------------------------------------------------------------|

===================================================================

Guitar 1
C#-----------------------------------------------------------------|
G#-13--13--13--13--13--13--13--13--13--13--13--13------------------|
E -12--12--12--12--12--12--12--12--12--12--12--12------------------|
B -10--10--10--10--10--10--10--10--10--10--10--10--12\~~~~~~~~~~~~-|
F#-------------------------------------------------12\~~~~~~~~~~~~-|
B -------------------------------------------------12\~~~~~~~~~~~~-|

Guitar 2
C#-----------------------------------------------------------------|
G#-8---8---8---8---8---8---8---8---8---8---8---8-------------------|
E -x---x---x---x---x---x---x---x---x---x---x---x-------------------|
B -5---5---5---5---5---5---5---5---5---5---5---5---12\~~~~~~~~~~~~-|
F#-------------------------------------------------12\~~~~~~~~~~~~-|
B -------------------------------------------------12\~~~~~~~~~~~~-|


===================================================================
===================================================================


Chorus 2

Guitar 1
C#-----------------------------------------------------------------|
G#-----------------------------------------------------------------|
E -7---7---7---7---7---7---7---7---7---7---7---7---7---7---7---7---|
B -7---7---7---7---7---7---7---7---7---7---7---7---7---7---7---7---|
F#-5---5---5---5---5---5---5---5---5---5---5---5---5---5---5---5---|
B -----------------------------------------------------------------|

Guitar 2
C#-----------------------------------------------------------------|
G#-----------------------------------------------------------------|
E -10--10--10--10--10--10--10--10--10--10--10--10--10--10--10--10--|
B -x---x---x---x---x---x---x---x---x---x---x---x---x---x---x---x---|
F#-8---8---8---8---8---8---8---8---8---8---8---8---8---8---8---8---|
B -----------------------------------------------------------------|

===================================================================

Guitar 1
C#-----------------------------------------------------------------|
G#-----------------------------------------------------------------|
E -----------------------------------------------------------------|
B -8---8---8---8---8---8---8---8---8---8---8---8---8---8---8---8---|
F#-8---8---8---8---8---8---8---8---8---8---8---8---8---8---8---8---|
B -8---8---8---8---8---8---8---8---8---8---8---8---8---8---8---8---|

Guitar 2
C#-----------------------------------------------------------------|
G#-10--10--10--10--10--10--10--10--10--10--10--10--10--10--10--10--|
E -x---x---x---x---x---x---x---x---x---x---x---x---x---x---x---x---|
B -8---8---8---8---8---8---8---8---8---8---8---8---8---8---8---8---|
F#-----------------------------------------------------------------|
B -----------------------------------------------------------------|

===================================================================

Guitar 1
C#-----------------------------------------------------------------|
G#-----------------------------------------------------------------|
E -----------------------------------------------------------------|
B -5---5---5---5---5---5---5---5---5---5---5---5---5---5---5---5---|
F#-5---5---5---5---5---5---5---5---5---5---5---5---5---5---5---5---|
B -5---5---5---5---5---5---5---5---5---5---5---5---5---5---5---5---|

Guitar 2
C#-----------------------------------------------------------------|
G#-8---8---8---8---8---8---8---8---8---8---8---8---8---8---8---8---|
E -x---x---x---x---x---x---x---x---x---x---x---x---x---x---x---x---|
B -5---5---5---5---5---5---5---5---5---5---5---5---5---5---5---5---|
F#-----------------------------------------------------------------|
B -----------------------------------------------------------------|

===================================================================

Guitar 1
C#-----------------------------------------------------------------|
G#-----------------------------------------------------------------|
E -----------------------------------------------------------------|
B -7---7---7---7---7---7---7---7---7---7---7---7---7---7---7---7---|
F#-7---7---7---7---7---7---7---7---7---7---7---7---7---7---7---7---|
B -7---7---7---7---7---7---7---7---7---7---7---7---7---7---7---7---|

Guitar 2
C#-----------------------------------------------------------------|
G#-----------------------------------------------------------------|
E -9---9---9---9---9---9---9---9---9---9---9---9---9---9---9---9---|
B -x---x---x---x---x---x---x---x---x---x---x---x---x---x---x---x---|
F#-7---7---7---7---7---7---7---7---7---7---7---7---7---7---7---7---|
B -----------------------------------------------------------------|

===================================================================

Guitar 1
C#-----------------------------------------------------------------|
G#-----------------------------------------------------------------|
E -7---7---7---7---7---7---7---7---7---7---7---7---7---7---7---7---|
B -7---7---7---7---7---7---7---7---7---7---7---7---7---7---7---7---|
F#-5---5---5---5---5---5---5---5---5---5---5---5---5---5---5---5---|
B -----------------------------------------------------------------|

Guitar 2
C#-----------------------------------------------------------------|
G#-----------------------------------------------------------------|
E -10--10--10--10--10--10--10--10--10--10--10--10--10--10--10--10--|
B -x---x---x---x---x---x---x---x---x---x---x---x---x---x---x---x---|
F#-8---8---8---8---8---8---8---8---8---8---8---8---8---8---8---8---|
B -----------------------------------------------------------------|

===================================================================

Guitar 1
C#-----------------------------------------------------------------|
G#-----------------------------------------------------------------|
E -----------------------------------------------------------------|
B -8---8---8---8---8---8---8---8---8---8---8---8---8---8---8---8---|
F#-8---8---8---8---8---8---8---8---8---8---8---8---8---8---8---8---|
B -8---8---8---8---8---8---8---8---8---8---8---8---8---8---8---8---|

Guitar 2
C#-----------------------------------------------------------------|
G#-10--10--10--10--10--10--10--10--10--10--10--10--10--10--10--10--|
E -x---x---x---x---x---x---x---x---x---x---x---x---x---x---x---x---|
B -8---8---8---8---8---8---8---8---8---8---8---8---8---8---8---8---|
F#-----------------------------------------------------------------|
B -----------------------------------------------------------------|

===================================================================

Guitar 1
C#-----------------------------------------------------------------|
G#-----------------------------------------------------------------|
E -----------------------------------------------------------------|
B -5---5---5---5---5---5---5---5---5---5---5---5---5---5---5---5---|
F#-5---5---5---5---5---5---5---5---5---5---5---5---5---5---5---5---|
B -5---5---5---5---5---5---5---5---5---5---5---5---5---5---5---5---|

Guitar 2
C#-----------------------------------------------------------------|
G#-8---8---8---8---8---8---8---8---8---8---8---8---8---8---8---8---|
E -x---x---x---x---x---x---x---x---x---x---x---x---x---x---x---x---|
B -5---5---5---5---5---5---5---5---5---5---5---5---5---5---5---5---|
F#-----------------------------------------------------------------|
B -----------------------------------------------------------------|

===================================================================

Guitar 1
C#-----------------------------------------------------------------|
G#-----------------------------------------------------------------|
E -----------------------------------------------------------------|
B -7---7---7---7---7---7---7---7---7-------------------------------|
F#-7---7---7---7---7---7---7---7---7-------------------------------|
B -7---7---7---7---7---7---7---7---7-------------------------------|

Guitar 2
C#-----------------------------------------------------------------|
G#-----------------------------------------------------------------|
E -9---9---9---9---9---9---9---9---9-------------------------------|
B -x---x---x---x---x---x---x---x---x-------------------------------|
F#-7---7---7---7---7---7---7---7---7-------------------------------|
B -----------------------------------------------------------------|

===================================================================
===================================================================


Interlude


Guitar 1 & 2
C#-----------------------------------------------------------------|
G#-----------------------------------------------------------------|
E -----------------------------------------------------------------|
B -0~~~~~~~~~~~~~~~~~~~~~~~~~~~~~~~~~~~~~~~~~~~~~~~~~~~~~~~~~~~~~~-
F#-0~~~~~~~~~~~~~~~~~~~~~~~~~~~~~~~~~~~~~~~~~~~~~~~~~~~~~~~~~~~~~~-
B -0~~~~~~~~~~~~~~~~~~~~~~~~~~~~~~~~~~~~~~~~~~~~~~~~~~~~~~~~~~~~~~-

===================================================================

Guitar 1 & 2
C#-----------------------------------------------------------------|
G#-----------------------------------------------------------------|
E -----------------------------------------------------------------|
B -0~~~~~~~~~~~~~~~~~~~~~~~~~~~~~~-ps\~~~~~~~~~~~~~~~~~~~~~~~~~~~~-
F#-0~~~~~~~~~~~~~~~~~~~~~~~~~~~~~~-ps\~~~~~~~~~~~~~~~~~~~~~~~~~~~~-
B -0~~~~~~~~~~~~~~~~~~~~~~~~~~~~~~-ps\~~~~~~~~~~~~~~~~~~~~~~~~~~~~-

===================================================================

Guitar 1
C#-----------------------------------------------------------------|
G#-----------------------------------------------------------------|
E -7---7---7---7---7---7---7---7---7---7---7---7---7---7---7---7---|
B -x---x---x---x---x---x---x---x---x---x---x---x---x---x---x---x---|
F#-8---8---8---8---8---8---8---8---8---8---8---8---8---8---8---8---|
B -----------------------------------------------------------------|

Guitar 2
C#-----------------------------------------------------------------|
G#-10--10--10--10--10--10--10--10------------------11--11--11--11--|
E -x---x---x---x---x---x---x---x---10--10--10--10--x---x---x---x---|
B -7---7---7---7---7---7---7---7---x---x---x---x---8---8---8---8---|
F#---------------------------------8---8---8---8-------------------|
B -----------------------------------------------------------------|

===================================================================

Guitar 1
C#-----------------------------------------------------------------|
G#-----------------------------------------------------------------|
E -7---7---7---7---7---7---7---7---7---7---7---7---7---7---7---7---|
B -x---x---x---x---x---x---x---x---x---x---x---x---x---x---x---x---|
F#-8---8---8---8---8---8---8---8---8---8---8---8---8---8---8---8---|
B -----------------------------------------------------------------|

Guitar 2
C#-----------------------------------------------------------------|
G#-10--10--10--10--10--10--10--10------------------10--10--10--10--|
E -x---x---x---x---x---x---x---x---10--10--10--10--x---x---x---x---|
B -7---7---7---7---7---7---7---7---x---x---x---x---7---7---7---7---|
F#---------------------------------8---8---8---8-------------------|
B -----------------------------------------------------------------|

===================================================================

Guitar 1
C#-----------------------------------------------------------------|
G#-----------------------------------------------------------------|
E -7---7---7---7---7---7---7---7---7---7---7---7---7---7---7---7---|
B -x---x---x---x---x---x---x---x---x---x---x---x---x---x---x---x---|
F#-7---7---7---7---7---7---7---7---7---7---7---7---7---7---7---7---|
B -----------------------------------------------------------------|

Guitar 2
C#-----------------------------------------------------------------|
G#-9---9---9---9---9---9---9---9-------------------10--10--10--10--|
E -x---x---x---x---x---x---x---x---9---9---9---9---x---x---x---x---|
B -6---6---6---6---6---6---6---6---x---x---x---x---7---7---7---7---|
F#---------------------------------7---7---7---7-------------------|
B -----------------------------------------------------------------|

===================================================================

Guitar 1
C#-----------------------------------------------------------------|
G#-----------------------------------------------------------------|
E -7---7---7---7---7---7---7---7---7---7---7---7---7---7---7---7---|
B -x---x---x---x---x---x---x---x---x---x---x---x---x---x---x---x---|
F#-7---7---7---7---7---7---7---7---7---7---7---7---7---7---7---7---|
B -----------------------------------------------------------------|

Guitar 2
C#-----------------------------------------------------------------|
G#-9---9---9---9---9---9---9---9-------------------9---9---9---9---|
E -x---x---x---x---x---x---x---x---9---9---9---9---x---x---x---x---|
B -6---6---6---6---6---6---6---6---x---x---x---x---6---6---6---6---|
F#---------------------------------7---7---7---7-------------------|
B -----------------------------------------------------------------|

===================================================================

Guitar 1
C#-----------------------------------------------------------------|
G#-----------------------------------------------------------------|
E -----------------------------------------------------------------|
B -0~~~~~~~~~~~~~~~~~~~~~~~~~~~~~~~~~~~~~~~~~~~~~~~~~~~~~~~~~~~~~~~
F#-0~~~~~~~~~~~~~~~~~~~~~~~~~~~~~~~~~~~~~~~~~~~~~~~~~~~~~~~~~~~~~~~
B -0~~~~~~~~~~~~~~~~~~~~~~~~~~~~~~~~~~~~~~~~~~~~~~~~~~~~~~~~~~~~~~~

Guitar 2
C#-----------------------------------------------------------------|
G#-10--10--10--10--10--10--10--10------------------11--11--11--11--|
E -x---x---x---x---x---x---x---x---10--10--10--10--x---x---x---x---|
B -7---7---7---7---7---7---7---7---x---x---x---x---8---8---8---8---|
F#---------------------------------8---8---8---8-------------------|
B -----------------------------------------------------------------|

===================================================================

Guitar 1
C#-----------------------------------------------------------------|
G#-----------------------------------------------------------------|
E -----------------------------------------------------------------|
B -~~~~~~~~~~~~~~~~~~~~~~~~~~~~~~~~~~~~~~~~~~~~~~~~~~~~~~~~~~~~~~~-
F#-~~~~~~~~~~~~~~~~~~~~~~~~~~~~~~~~~~~~~~~~~~~~~~~~~~~~~~~~~~~~~~~-
B -~~~~~~~~~~~~~~~~~~~~~~~~~~~~~~~~~~~~~~~~~~~~~~~~~~~~~~~~~~~~~~~-

Guitar 2
C#-----------------------------------------------------------------|
G#-10--10--10--10--10--10--10--10------------------10--10--10--10--|
E -x---x---x---x---x---x---x---x---10--10--10--10--x---x---x---x---|
B -7---7---7---7---7---7---7---7---x---x---x---x---7---7---7---7---|
F#---------------------------------8---8---8---8-------------------|
B -----------------------------------------------------------------|

===================================================================

Guitar 1
C#-----------------------------------------------------------------|
G#-----------------------------------------------------------------|
E -----------------------------------------------------------------|
B -6~~~~~~~~~~~~~~~~~~~~~~~~~~~~~~~~~~~~~~~~~~~~~~~~~~~~~~~~~~~~~~~
F#-6~~~~~~~~~~~~~~~~~~~~~~~~~~~~~~~~~~~~~~~~~~~~~~~~~~~~~~~~~~~~~~~
B -6~~~~~~~~~~~~~~~~~~~~~~~~~~~~~~~~~~~~~~~~~~~~~~~~~~~~~~~~~~~~~~~

Guitar 2
C#-----------------------------------------------------------------|
G#-9---9---9---9---9---9---9---9-------------------10--10--10--10--|
E -x---x---x---x---x---x---x---x---9---9---9---9---x---x---x---x---|
B -6---6---6---6---6---6---6---6---x---x---x---x---7---7---7---7---|
F#---------------------------------7---7---7---7-------------------|
B -----------------------------------------------------------------|

===================================================================

Guitar 2
C#-----------------------------------------------------------------|
G#-9---------------------------------------------------------------|
E -x---------------------------------------------------------------|
B -6---------------------------------------------------------------|
F#-----------------------------------------------------------------|
B -----------------------------------------------------------------|

===================================================================
===================================================================


Breakdown 1

Guitar 1 & 2
C#-----------------------------------------------------------------|
G#-----------------------------------------------------------------|
E -----------------------------------------------------------------|
B -0~~~~~~-0---0---0---0---0---0-----------------------------------|
F#-0~~~~~~-0---0---0---0---0---0---5~~~~~~-----7~~~~~~-----8~~~~~~-|
B -0~~~~~~-0---0---0---0---0---0-----------0-----------0-----------|
Pm         .   .   .   .   .   .           .           .

===================================================================

Guitar 1 & 2
C#-----------------------------------------------------------------|
G#-----------------------------------------------------------------|
E -----------------------------------------------------------------|
B ---------0---0---0---0---0---0-----------------------------------|
F#---------0---0---0---0---0---0---5~~~~~~-----7~~~~~~-----8~~~~~~-|
B ---------0---0---0---0---0---0-----------0-----------0-----------|
Pm         .   .   .   .   .   .           .           .

===================================================================

Guitar 1 & 2
C#-----------------------------------------------------------------|
G#-----------------------------------------------------------------|
E -----------------------------------------------------------------|
B -----------------------------------------------------------------|
F#---------------------------------5~~~~~~-----7~~~~~~-----8~~~~~~-|
B -6~~~~~~-6---6---6---6---6---6-----------6-----------6-----------|
Pm         .   .   .   .   .   .           .           .

===================================================================

Guitar 1
C#-----------------------------------------------------------------|
G#-----------------------------------------------------------------|
E -----------------------------------------------------------------|
B -----------------------------------------------------------------|
F#---------------------------------8~~~~~~---------7*~~~~~~~~~~~~~-|
B ---------6-6-6-6-6~~~~~~-6~~~~~~---------6~~~~~~-----------------|
Pm         . . . . .       .               .

Guitar 2
C#-----------------------------------------------------------------|
G#-----------------------------------------------------------------|
E -----------------------------------------------------------------|
B -------------------------------------------------5*~~~~~~~~~~~~~-|
F#---------------------------------8~~~~~~-------------------------|
B ---------6-6-6-6-6~~~~~~-6~~~~~~---------6~~~~~~-----------------|
Pm         . . . . .       .               .

===================================================================

Guitar 1
C#-----------------------------------------------------------------|
G#-----------------------------------------------------------------|
E -----------------------------------------------------------------|
B -0~~~~~~-0---0---0---0---0---0-----------------------------------|
F#-0~~~~~~-0---0---0---0---0---0---5~~~~~~-----7~~~~~~-----8~~~~~~-|
B -0~~~~~~-0---0---0---0---0---0-----------0-----------0-----------|
Pm         .   .   .   .   .   .           .           .

Guitar 2
C#-------------------------------------------------------------------|
G#-------------------------------------------------------------------|
E -14-14-14-14-14-14-14-14-14-14-10-10-10-10-10-10-15-15-15-15-15-15-|
B -------------------------------------------------------------------|
F#-------------------------------------------------------------------|
B -------------------------------------------------------------------|

===================================================================

Guitar 1
C#-----------------------------------------------------------------|
G#-----------------------------------------------------------------|
E -----------------------------------------------------------------|
B ---------0---0---0---0---0---0-----------------------------------|
F#---------0---0---0---0---0---0---5~~~~~~-----7~~~~~~-----8~~~~~~-|
B ---------0---0---0---0---0---0-----------0-----------0-----------|
Pm         .   .   .   .   .   .           .           .

Guitar 2
C#-------------------------------------------------------------------|
G#-------------------------------------------------------------------|
E -14-14-14-14-14-14-14-14-14-14-10-10-10-10-10-10-14-14-14-14-14-14-|
B -------------------------------------------------------------------|
F#-------------------------------------------------------------------|
B -------------------------------------------------------------------|

===================================================================

Guitar 1
C#-----------------------------------------------------------------|
G#-----------------------------------------------------------------|
E -----------------------------------------------------------------|
B -----------------------------------------------------------------|
F#---------------------------------5~~~~~~-----7~~~~~~-----8~~~~~~-|
B -6~~~~~~-6---6---6---6---6---6-----------6-----------6-----------|
Pm         .   .   .   .   .   .           .           .

Guitar 2
C#-------------------------------------------------------------------|
G#-------------------------------------------------------------------|
E -13-13-13-13-13-13-13-13-13-13-9-9-9-9-9-9-9-9-9-14-14-14-14-14-14-|
B -------------------------------------------------------------------|
F#-------------------------------------------------------------------|
B -------------------------------------------------------------------|

===================================================================

Guitar 1
C#-----------------------------------------------------------------|
G#-----------------------------------------------------------------|
E -----------------------------------------------------------------|
B -----------------------------------------------------------------|
F#---------------------------------8~~~~~~---------7*~~~~~~~~~~~~~-|
B ---------6-6-6-6-6~~~~~~-6~~~~~~---------6~~~~~~-----------------|
Pm         . . . . .       .               .

Guitar 2
C#-------------------------------------------------------------------|
G#-------------------------------------------------------------------|
E -13-13-13-13-13-13-13-13-13-13-9-9-9-9-9-9-9-9-9-13-13-13-13-13-13-|
B -------------------------------------------------------------------|
F#-------------------------------------------------------------------|
B -------------------------------------------------------------------|

===================================================================
===================================================================


Breakdown 2

Guitar 1
C#-----------------------------------------------------------------|
G#-----------------------------------------------------------------|
E -----------------------------------------------------------------|
B -0---0---0---0---0---0---0---0-----------------------------------|
F#-0---0---0---0---0---0---0---0---5---0---0---7---0---0---8---0---|
B -0---0---0---0---0---0---0---0-----------------------------------|
Pm     .   .       .   .       .

Guitar 2
C#-------------------------------------------------------------------|
G#-------------------------------------------------------------------|
E -14-14-14-14-14-14-14-14-14-14-10-10-10-10-10-10-15-15-15-15-15-15-|
B -------------------------------------------------------------------|
F#-------------------------------------------------------------------|
B -------------------------------------------------------------------|

===================================================================

Guitar 1
C#-----------------------------------------------------------------|
G#-----------------------------------------------------------------|
E -----------------------------------------------------------------|
B -0---0---0---0---0---0---0---0-----------------------------------|
F#-0---0---0---0---0---0---0---0---5---0---0---7---0---0---8---0---|
B -0---0---0---0---0---0---0---0-----------------------------------|
Pm     .   .       .   .       .

Guitar 2
C#-------------------------------------------------------------------|
G#-------------------------------------------------------------------|
E -14-14-14-14-14-14-14-14-14-14-10-10-10-10-10-10-14-14-14-14-14-14-|
B -------------------------------------------------------------------|
F#-------------------------------------------------------------------|
B -------------------------------------------------------------------|

===================================================================

Guitar 1
C#-----------------------------------------------------------------|
G#-----------------------------------------------------------------|
E -----------------------------------------------------------------|
B -6---6---6---6---6---6---6---6-----------------------------------|
F#-6---6---6---6---6---6---6---6---5---0---0---7---0---0---8---0---|
B -6---6---6---6---6---6---6---6-----------------------------------|
Pm     .   .       .   .       .

Guitar 2
C#-------------------------------------------------------------------|
G#-------------------------------------------------------------------|
E -13-13-13-13-13-13-13-13-13-13-9-9-9-9-9-9-9-9-9-14-14-14-14-14-14-|
B -------------------------------------------------------------------|
F#-------------------------------------------------------------------|
B -------------------------------------------------------------------|

===================================================================

Guitar 1
C#-----------------------------------------------------------------|
G#-----------------------------------------------------------------|
E -----------------------------------------------------------------|
B -6---6---6---6---6---6---6---6-----------------------------------|
F#-6---6---6---6---6---6---6---6---5---0---0---7---0---0---8---0---|
B -6---6---6---6---6---6---6---6-----------------------------------|
Pm     .   .       .   .       .

Guitar 2
C#-------------------------------------------------------------------|
G#-------------------------------------------------------------------|
E -13-13-13-13-13-13-13-13-13-13-9-9-9-9-9-9-9-9-9-13-13-13-13-13-13-|
B -------------------------------------------------------------------|
F#-------------------------------------------------------------------|
B -------------------------------------------------------------------|

===================================================================

Guitar 1
C#-----------------------------------------------------------------|
G#-----------------------------------------------------------------|
E -----------------------------------------------------------------|
B -0---0---0---0---0---0---0---0-----------------------------------|
F#-0---0---0---0---0---0---0---0---5---0---0---7---0---0---8---0---|
B -0---0---0---0---0---0---0---0-----------------------------------|
Pm     .   .       .   .       .

Guitar 2
C#-----------------------------------------------------------------|
G#---------10--10--9---9---6---6-----------10--10--9---9---6---6---|
E -7---7---------------------------7---7---------------------------|
B -----------------------------------------------------------------|
F#-----------------------------------------------------------------|
B -----------------------------------------------------------------|

===================================================================

Guitar 1
C#-----------------------------------------------------------------|
G#-----------------------------------------------------------------|
E -----------------------------------------------------------------|
B -0---0---0---0---0---0---0---0-----------------------------------|
F#-0---0---0---0---0---0---0---0---5---0---0---7---0---0---8---0---|
B -0---0---0---0---0---0---0---0-----------------------------------|
Pm     .   .       .   .       .

Guitar 2
C#-----------------------------------------------------------------|
G#---------10--10--9---9---10--10--11--11--10--10--9---9---10--10--|
E -7---7-----------------------------------------------------------|
B -----------------------------------------------------------------|
F#-----------------------------------------------------------------|
B -----------------------------------------------------------------|

===================================================================

Guitar 1
C#-----------------------------------------------------------------|
G#-----------------------------------------------------------------|
E -----------------------------------------------------------------|
B -6---6---6---6---6---6---6---6-----------------------------------|
F#-6---6---6---6---6---6---6---6---5---0---0---7---0---0---8---0---|
B -6---6---6---6---6---6---6---6-----------------------------------|
Pm     .   .       .   .       .

Guitar 2
C#------------------------------------------------------------------|
G#-8-9-10-9-8-8-8-9-10-9-8-8-8-9-10-9-8-8-8-9-10-9-8-8-8-9-10-9-8-8-|
E ------------------------------------------------------------------|
B ------------------------------------------------------------------|
F#------------------------------------------------------------------|
B ------------------------------------------------------------------|

===================================================================

Guitar 1
C#-----------------------------------------------------------------|
G#-----------------------------------------------------------------|
E -----------------------------------------------------------------|
B -6---6---6---6---6---6---6---6-----------------------------------|
F#-6---6---6---6---6---6---6---6---5---0---0---7---0---0---8---0---|
B -6---6---6---6---6---6---6---6-----------------------------------|
Pm     .   .       .   .       .

Guitar 2
C#-----------------------------------------------------------------|
G#-9---6---9---6---5---8---5---8-----------------------------------|
E ---------------------------------9---7---6-------6---------------|
B ---------------------------------------------9-------9---6---7---|
F#-----------------------------------------------------------------|
B -----------------------------------------------------------------|
Pm                 .   .   .   .

===================================================================
===================================================================


Chorus 3

Guitar 1 & 2
C#-----------------------------------------------------------------|
G#-----------------------------------------------------------------|
E -----------------------------------------------------------------|
B -0---0---0---0---0-----------------------------------------------|
F#-0---0---0---0---0-----------------------------------------------|
B -0---0---0---0---0-----------------------------------------------|

===================================================================

Guitar 1 & 2
C#-----------------------------------------------------------------|
G#-----------------------------------------------------------------|
E -----------------------------------------------------------------|
B -8---8---8---8---8-----------------------------------------------|
F#-8---8---8---8---8-----------------------------------------------|
B -8---8---8---8---8-----------------------------------------------|

===================================================================

Guitar 1 & 2
C#-----------------------------------------------------------------|
G#-----------------------------------------------------------------|
E -----------------------------------------------------------------|
B -5---5---5---5---5-----------------------------------------------|
F#-5---5---5---5---5-----------------------------------------------|
B -5---5---5---5---5-----------------------------------------------|

===================================================================

Guitar 1 & 2
C#-----------------------------------------------------------------|
G#-----------------------------------------------------------------|
E -----------------------------------------------------------------|
B -7---7---7---7---7-----------------------------------------------|
F#-7---7---7---7---7-----------------------------------------------|
B -7---7---7---7---7-----------------------------------------------|

===================================================================

Guitar 1
C#-----------------------------------------------------------------|
G#-----------------------------------------------------------------|
E -7---7---7---7---7---7---7---7---7---7---7---7---7---7---7---7---|
B -7---7---7---7---7---7---7---7---7---7---7---7---7---7---7---7---|
F#-5---5---5---5---5---5---5---5---5---5---5---5---5---5---5---5---|
B -----------------------------------------------------------------|

Guitar 2
C#-----------------------------------------------------------------|
G#-----------------------------------------------------------------|
E -10--10--10--10--10--10--10--10--10--10--10--10--10--10--10--10--|
B -x---x---x---x---x---x---x---x---x---x---x---x---x---x---x---x---|
F#-8---8---8---8---8---8---8---8---8---8---8---8---8---8---8---8---|
B -----------------------------------------------------------------|

===================================================================

Guitar 1
C#-----------------------------------------------------------------|
G#-----------------------------------------------------------------|
E -----------------------------------------------------------------|
B -8---8---8---8---8---8---8---8---8---8---8---8---8---8---8---8---|
F#-8---8---8---8---8---8---8---8---8---8---8---8---8---8---8---8---|
B -8---8---8---8---8---8---8---8---8---8---8---8---8---8---8---8---|

Guitar 2
C#-----------------------------------------------------------------|
G#-10--10--10--10--10--10--10--10--10--10--10--10--10--10--10--10--|
E -x---x---x---x---x---x---x---x---x---x---x---x---x---x---x---x---|
B -8---8---8---8---8---8---8---8---8---8---8---8---8---8---8---8---|
F#-----------------------------------------------------------------|
B -----------------------------------------------------------------|

===================================================================

Guitar 1
C#-----------------------------------------------------------------|
G#-----------------------------------------------------------------|
E -----------------------------------------------------------------|
B -5---5---5---5---5---5---5---5---5---5---5---5---5---5---5---5---|
F#-5---5---5---5---5---5---5---5---5---5---5---5---5---5---5---5---|
B -5---5---5---5---5---5---5---5---5---5---5---5---5---5---5---5---|

Guitar 2
C#-----------------------------------------------------------------|
G#-8---8---8---8---8---8---8---8---8---8---8---8---8---8---8---8---|
E -x---x---x---x---x---x---x---x---x---x---x---x---x---x---x---x---|
B -5---5---5---5---5---5---5---5---5---5---5---5---5---5---5---5---|
F#-----------------------------------------------------------------|
B -----------------------------------------------------------------|

===================================================================

Guitar 1
C#-----------------------------------------------------------------|
G#-----------------------------------------------------------------|
E -----------------------------------------------------------------|
B -7---7---7---7---7---7---7---7---7-------------------------------|
F#-7---7---7---7---7---7---7---7---7-------------------------------|
B -7---7---7---7---7---7---7---7---7-------------------------------|

Guitar 2
C#-----------------------------------------------------------------|
G#-----------------------------------------------------------------|
E -9---9---9---9---9---9---9---9---9-------------------------------|
B -x---x---x---x---x---x---x---x---x-------------------------------|
F#-7---7---7---7---7---7---7---7---7-------------------------------|
B -----------------------------------------------------------------|

===================================================================
===================================================================


Outro

Guitar 1 & 2
C#-----------------------------------------------------------------|
G#-----------------------------------------------------------------|
E -----------------------------------------------------------------|
B -0---0---0---0---0-----------------------------------------------|
F#-0---0---0---0---0-----------------------------------------------|
B -0---0---0---0---0-----------------------------------------------|

===================================================================
===================================================================
===================================================================


Tab Legend
h  - hammer-on
p  - pull-off
/  - slide up
\  - slide down
ps/- pickslide up
ps\- pickslide down
~  - let ring
pm.- palm mute
b  - bend
r  - return from bend
t  - finger tapping
*  - harmonic
x  - dead note
^  - Whammy bar
^\ - Whammy bar (hold down)

That’s the end of it! I hope this helped, and be sure to check out my cover if you are
having problems with the tab. Thanks, oh and one last thing... ROCK OUT!!!!
comments
print report bad tab
1 comment total.
0 reply
Shagtarf wrote on August 9 2012, 11:56 pm

At the begining I'm pretty sure on the second half of the intro it is 9 on E string the instead of 11, but apart from that this is prolly the best organized tab I have seen.

I want to post or [tab]
guest
You may want to rate the tab now too:
select rating
Please do not post tabs as comments. Select "correction" instead!