Oops, an error
Loading. Please wait.

May These Noises Startle You In Your Sleep Tab

ver1
ver1

Whole song

Interactive

More versions @911Tabs.com
10,609 views 39 this week
no commentswrite comment
1 2 3 4 5
excellent!
x 3
Autoscroll
+/-
esc
set tempo
stop
Contributor
Difficulty
Tuning
intermediate
B F# B E G# C#
NEW! There's an official Ultimate Guitar app which is ideal
for learning songs when you're away from computer. Get the app
WARNING: You are trying to view
                                    content from Ultimate-Guitar.com
                                    in an unauthorized application,
                                    which is prohibited.

                                    Please use an official Ultimate
                                    Guitar Tabs application for iPhone,
                                    iPad or Android to access legitimate
                                    chords, guitar, bass, and drum tabs
                                    from Ultimate-Guitar.com database.

                                    Type "ultimate guitar tabs" in Apple
                                    App Store's or Android Market's
                                    search to find the application.
----------------------------------------------------------------------------
                 May These Noises Startle You in Your Sleep
                            Pierce the Veil
----------------------------------------------------------------------------

Edited 4/22/13. Enjoy!

Username: dkm817 (same on X box live)
Youtube Tutorial: http://www.youtube.com/watch?v=OfB4JXb3sXQ
Email: guitardrums@rockfan.com

Guitar 1 Rhythmic (B  F# B  E  G# C# )
Guitar 2 Lead     (B  F# B  E  G# C# )

Tab Guide...
===================================================================
(end of measures)

===================================================================
===================================================================
(end of parts)

===================================================================
===================================================================
===================================================================
(end of song)

(If there is a “continued” it is because the numbers could not
fit on 1 line or connecting times played.)


Intro

Guitar 1 (Clean)
C#-----------------------------------------------------------------|
G#-----------------------------------------------------------------|
E -2~~~~~~-2~~~~~~-2~~~~~~-2~~~~~~-2~~~~~~-2~~~~~~-2~~~~~~-2~~~~~~-|
B -2~~~~~~-2~~~~~~-2~~~~~~-2~~~~~~-2~~~~~~-2~~~~~~-2~~~~~~-2~~~~~~-|
F#-0~~~~~~-0~~~~~~-0~~~~~~-0~~~~~~-0~~~~~~-0~~~~~~-0~~~~~~-0~~~~~~-|
B -----------------------------------------------------------------|

Guitar 2 (Clean)
C#-----------------------------------------------------------------|
G#-12~~~~~-----------------13~~~~~-12~~~~~-------------------------|
E ---------14~~~~~-------------------------14~~~~~-----------------|
B -----------------14~~~~~-------------------------14~~~~~-13~~~~~-|
F#-----------------------------------------------------------------|
B -----------------------------------------------------------------|

===================================================================

Guitar 1
C#-----------------------------------------------------------------|
G#-----------------------------------------------------------------|
E -7~~~~~~-7~~~~~~-7~~~~~~-7~~~~~~-7~~~~~~-7~~~~~~-7~~~~~~-7~~~~~~-|
B -7~~~~~~-7~~~~~~-7~~~~~~-7~~~~~~-7~~~~~~-7~~~~~~-7~~~~~~-7~~~~~~-|
F#-5~~~~~~-5~~~~~~-5~~~~~~-5~~~~~~-5~~~~~~-5~~~~~~-5~~~~~~-5~~~~~~-|
B -----------------------------------------------------------------|

Guitar 2
C#-----------------------------------------------------------------|
G#-----------------12~~~~~-13~~~~~-15~~~~~-12~~~~~-13~~~~~-12~~~~~-|
E -----------------------------------------------------------------|
B -12~~~~~---------------------------------------------------------|
F#---------12~~~~~-------------------------------------------------|
B -----------------------------------------------------------------|

===================================================================

Guitar 1
C#-----------------------------------------------------------------|
G#-----------------------------------------------------------------|
E -4~~~~~~-4~~~~~~-4~~~~~~-4~~~~~~-4~~~~~~-4~~~~~~-4~~~~~~-4~~~~~~-|
B -5~~~~~~-5~~~~~~-5~~~~~~-5~~~~~~-5~~~~~~-5~~~~~~-6~~~~~~-6~~~~~~-|
F#-5~~~~~~-5~~~~~~-5~~~~~~-5~~~~~~-5~~~~~~-5~~~~~~-6~~~~~~-6~~~~~~-|
B -----------------------------------------------------------------|

Guitar 2
C#-----------------------------------------------------------------|
G#---------------------------------12~~~~~-13~~~~~-12~~~~~---------|
E -14~~~~~-12~~~~~---------14~~~~~-------------------------14~~~~~-|
B -----------------------------------------------------------------|
F#-----------------------------------------------------------------|
B -----------------------------------------------------------------|

===================================================================

Guitar 1
C#-----------------------------------------------------------------|
G#-----------------------------------------------------------------|
E -5~~~~~~-5~~~~~~-5~~~~~~-5~~~~~~-5~~~~~~-5~~~~~~-5~~~~~~-5~~~~~~-|
B -7~~~~~~-7~~~~~~-7~~~~~~-7~~~~~~-7~~~~~~-7~~~~~~-7~~~~~~-7~~~~~~-|
F#-7~~~~~~-7~~~~~~-7~~~~~~-7~~~~~~-7~~~~~~-7~~~~~~-7~~~~~~-7~~~~~~-|
B -----------------------------------------------------------------|

Guitar 2
C#---------------------12--13--15--13--12--------------------------|
G#---------12--13--15----------------------15--13--12--13--12------|
E -------------------------------------------------------------14--|
B -----------------------------------------------------------------|
F#-----------------------------------------------------------------|
B -----------------------------------------------------------------|

===================================================================
===================================================================


Verse

Guitar 1
Guitar 1
C#-----------------------------------------------------------------|
G#-----------------------------------------------------------------|
E -2~~~~~~-2~~~~~~-2~~~~~~-2~~~~~~-2~~~~~~-2~~~~~~-2~~~~~~-2~~~~~~-|
B -2~~~~~~-2~~~~~~-2~~~~~~-2~~~~~~-2~~~~~~-2~~~~~~-2~~~~~~-2~~~~~~-|
F#-0~~~~~~-0~~~~~~-0~~~~~~-0~~~~~~-0~~~~~~-0~~~~~~-0~~~~~~-0~~~~~~-|
B -----------------------------------------------------------------|

Guitar 2
C#-----------------------------------------------------------------|
G#-12~~~~~-----------------13~~~~~-12~~~~~-------------------------|
E ---------14~~~~~-------------------------14~~~~~-----------------|
B -----------------14~~~~~-------------------------14~~~~~-13~~~~~-|
F#-----------------------------------------------------------------|
B -----------------------------------------------------------------|

===================================================================

Guitar 1
C#-----------------------------------------------------------------|
G#-----------------------------------------------------------------|
E -7~~~~~~-7~~~~~~-7~~~~~~-7~~~~~~-7~~~~~~-7~~~~~~-7~~~~~~-7~~~~~~-|
B -7~~~~~~-7~~~~~~-7~~~~~~-7~~~~~~-7~~~~~~-7~~~~~~-7~~~~~~-7~~~~~~-|
F#-5~~~~~~-5~~~~~~-5~~~~~~-5~~~~~~-5~~~~~~-5~~~~~~-5~~~~~~-5~~~~~~-|
B -----------------------------------------------------------------|

Guitar 2
C#-----------------------------------------------------------------|
G#-----------------12~~~~~-13~~~~~-15~~~~~-12~~~~~-13~~~~~-12~~~~~-|
E -----------------------------------------------------------------|
B -12~~~~~---------------------------------------------------------|
F#---------12~~~~~-------------------------------------------------|
B -----------------------------------------------------------------|

===================================================================

Guitar 1
C#-----------------------------------------------------------------|
G#-----------------------------------------------------------------|
E -4~~~~~~-4~~~~~~-4~~~~~~-4~~~~~~-4~~~~~~-4~~~~~~-4~~~~~~-4~~~~~~-|
B -5~~~~~~-5~~~~~~-5~~~~~~-5~~~~~~-5~~~~~~-5~~~~~~-6~~~~~~-6~~~~~~-|
F#-5~~~~~~-5~~~~~~-5~~~~~~-5~~~~~~-5~~~~~~-5~~~~~~-6~~~~~~-6~~~~~~-|
B -----------------------------------------------------------------|

Guitar 2
C#-----------------------------------------------------------------|
G#---------------------------------12~~~~~-13~~~~~-12~~~~~---------|
E -14~~~~~-12~~~~~---------14~~~~~-------------------------14~~~~~-|
B -----------------------------------------------------------------|
F#-----------------------------------------------------------------|
B -----------------------------------------------------------------|

===================================================================

Guitar 1
C#-----------------------------------------------------------------|
G#-----------------------------------------------------------------|
E -5~~~~~~-5~~~~~~-5~~~~~~-5~~~~~~-5~~~~~~-5~~~~~~-5~~~~~~-5~~~~~~-|
B -7~~~~~~-7~~~~~~-7~~~~~~-7~~~~~~-7~~~~~~-7~~~~~~-7~~~~~~-7~~~~~~-|
F#-7~~~~~~-7~~~~~~-7~~~~~~-7~~~~~~-7~~~~~~-7~~~~~~-7~~~~~~-7~~~~~~-|
B -----------------------------------------------------------------|

Guitar 2
C#---------------------12--13--15--13--12--------------------------|
G#---------12--13--15----------------------15--13--12--13--12------|
E -------------------------------------------------------------14--|
B -----------------------------------------------------------------|
F#-----------------------------------------------------------------|
B -----------------------------------------------------------------|

===================================================================

Guitar 1
C#-----------------------------------------------------------------|
G#-----------------------------------------------------------------|
E -2~~~~~~-2~~~~~~-2~~~~~~-2~~~~~~-2~~~~~~-2~~~~~~-2~~~~~~-2~~~~~~-|
B -2~~~~~~-2~~~~~~-2~~~~~~-2~~~~~~-2~~~~~~-2~~~~~~-2~~~~~~-2~~~~~~-|
F#-0~~~~~~-0~~~~~~-0~~~~~~-0~~~~~~-0~~~~~~-0~~~~~~-0~~~~~~-0~~~~~~-|
B -----------------------------------------------------------------|

Guitar 2
C#-----------------------------------------------------------------|
G#-12~~~~~-----------------13~~~~~-12~~~~~-------------------------|
E ---------14~~~~~-------------------------14~~~~~-----------------|
B -----------------14~~~~~-------------------------14~~~~~-13~~~~~-|
F#-----------------------------------------------------------------|
B -----------------------------------------------------------------|

===================================================================

Guitar 1
C#-----------------------------------------------------------------|
G#-----------------------------------------------------------------|
E -7~~~~~~-7~~~~~~-7~~~~~~-7~~~~~~-7~~~~~~-7~~~~~~-7~~~~~~-7~~~~~~-|
B -7~~~~~~-7~~~~~~-7~~~~~~-7~~~~~~-7~~~~~~-7~~~~~~-7~~~~~~-7~~~~~~-|
F#-5~~~~~~-5~~~~~~-5~~~~~~-5~~~~~~-5~~~~~~-5~~~~~~-5~~~~~~-5~~~~~~-|
B -----------------------------------------------------------------|

Guitar 2
C#-------------------------------------------------15~~~~~---------|
G#-----------------12~~~~~-15~~~~~-13~~~~~-12~~~~~---------12~~~~~-|
E -----------------------------------------------------------------|
B -12~~~~~---------------------------------------------------------|
F#---------12~~~~~-------------------------------------------------|
B -----------------------------------------------------------------|

===================================================================

Guitar 1
C#-----------------------------------------------------------------|
G#-----------------------------------------------------------------|
E -4~~~~~~-4~~~~~~-4~~~~~~-4~~~~~~-4~~~~~~-4~~~~~~-4~~~~~~-4~~~~~~-|
B -5~~~~~~-5~~~~~~-5~~~~~~-5~~~~~~-6~~~~~~-6~~~~~~-6~~~~~~-6~~~~~~-|
F#-5~~~~~~-5~~~~~~-5~~~~~~-5~~~~~~-6~~~~~~-6~~~~~~-6~~~~~~-6~~~~~~-|
B -----------------------------------------------------------------|

Guitar 2
C#---------12~~~~~-13~~~~~-15~~~~~-15h16~~-------------------------|
G#-12~~~~~---------------------------------15~~~~~-13~~~~~-12~~~~~-|
E -----------------------------------------------------------------|
B -----------------------------------------------------------------|
F#-----------------------------------------------------------------|
B -----------------------------------------------------------------|

===================================================================

Guitar 1
C#-----------------------------------------------------------------|
G#-----------------------------------------------------------------|
E -5~~~~~~-5~~~~~~-5~~~~~~-5~~~~~~-4~~~~~~-4~~~~~~-4~~~~~~-4~~~~~~-|
B -7~~~~~~-7~~~~~~-7~~~~~~-7~~~~~~-6~~~~~~-6~~~~~~-6~~~~~~-6~~~~~~-|
F#-7~~~~~~-7~~~~~~-7~~~~~~-7~~~~~~-6~~~~~~-6~~~~~~-6~~~~~~-6~~~~~~-|
B -----------------------------------------------------------------|

Guitar 2
C#---------12~~~~~-13~~~~~-15~~~~~-15h16~~-------------------------|
E -12~~~~~---------------------------------15~~~~~-13~~~~~-12~~~~~-|
F#-----------------------------------------------------------------|
B -----------------------------------------------------------------|
F#-----------------------------------------------------------------|
B -----------------------------------------------------------------|

===================================================================
===================================================================


Breakdown

Guitar 1
C#-----------------------------------------------------------------|
G#-----------------------------------------------------------------|
E -----------------------------------------------------------------|
B -7-------------------7---7---------------------------7-7-7-7-7-7-|
F#-7-------------------7---7---------------------------7-7-7-7-7-7-|
B -7-------------------7---7---------------------------7-7-7-7-7-7-|
Pm .                   .   .                           . . . . . .

Guitar 2
C#-17-17-17-17-17-17-17-17-17-17-17-17-17-17-17-17-17-17-17-17-17--|
G#-----------------------------------------------------------------|
E -----------------------------------------------------------------|
B -----------------------------------------------------------------|
F#-----------------------------------------------------------------|
B -----------------------------------------------------------------|

===================================================================

Guitar 1
C#-----------------------------------------------------------------|
G#-----------------------------------------------------------------|
E -----------------------------------------------------------------|
B -7-------------------7---7-------------------2-------------------|
F#-7-------------------7---7-------------------2-------------------|
B -7-------------------7---7-------------------2--/10~~~-9~~~~-7---|
Pm .                   .   .                   .

Guitar 2
C#-20-20-20-20-20-20-20-20-20-20-20-20-20-20-20-20-20-20-20-20-20--|
G#-----------------------------------------------------------------|
E -----------------------------------------------------------------|
B -----------------------------------------------------------------|
F#-----------------------------------------------------------------|
B -----------------------------------------------------------------|

===================================================================

Guitar 1
C#-----------------------------------------------------------------|
G#-----------------------------------------------------------------|
F#-------------------------------------------------------------9---|
B -2-------------------2---2-------2-2---2-2---2/~~~~~~~~~~~~~-11--|
F#-2-------------------2---2-------2-2---2-2---2/~~~~~~~~~~~~~-----|
B -2-------------------2---2-------2-2---2-2---2/~~~~~~~~~~~~~-----|
Pm .                   .   .       . .   . .

Guitar 2
C#-16-16-16-16-16-16-16-16-16-16-16-16-16-16-16-16-16-16-16-16-16--|
G#-----------------------------------------------------------------|
E -----------------------------------------------------------------|
B -----------------------------------------------------------------|
F#-----------------------------------------------------------------|
B -----------------------------------------------------------------|

===================================================================

Guitar 1
C#-----------------------------------------------------------------|
G#-----------------------------------------------------------------|
E -----------------------------------------------------------------|
B -2-------------------2---2-------2-2-2-2-2-2-2-2-2---x-x---------|
F#-2-------------------2---2-------2-2-2-2-2-2-2-2-2---x-x---------|
B -2-------------------2---2-------2-2-2-2-2-2-2-2-2---x-x-17\~~~~-|
Pm .                   .   .       . . . . . . . . .

Guitar 2
C#-19-19-19-19-19-19-19-19-19-19-19-19-19-19-19-19-19-19-19-19-19--|
G#-----------------------------------------------------------------|
E -----------------------------------------------------------------|
B -----------------------------------------------------------------|
F#-----------------------------------------------------------------|
B -----------------------------------------------------------------|

===================================================================
===================================================================


Bridge

Guitar 1 x2
C#-----------------------------------------------------------------|
G#-----------------------------------------------------------------|
E -----------------------------------------------------------------|
B -----------------------------------------------------------------|
F#-----------------------------------------------------------------|
B -7-7-7-7-7-7-7-7-7-7-7-7-7-7-7-7-7-7-7-7-7-7-7-7-7-7-7-7-7-7-7-7-|
Pm . . . . . . . . . . . . . . . . . . . . . . . . . . . . . . . .

Guitar 2 x2
C#-----------------------------------------------------------------|
G#-----17--15--13--12----12-13-13~~---17--15--13--12----12-13-13~~-|
E -----------------------------------------------------------------|
B -----------------------------------------------------------------|
F#-----------------------------------------------------------------|
B -----------------------------------------------------------------|

===================================================================

Guitar 1
C#-----------------------------------------------------------------|
G#-----------------------------------------------------------------|
E -----------------------------------------------------------------|
B -----------------------------------------------------------------|
F#-----------------------------------------------------------------|
B -2-2-2-2-2-2-2-2-2-2-2-2-2-2-2-2-2-2-2-2-2-2-2-2-2-2-2-2-2-2-2-2-|
Pm . . . . . . . . . . . . . . . . . . . . . . . . . . . . . . . .

Guitar 2
C#-----15-----------------------------15---------------------------|
G#---------15--13--12----12-13-13~~-------15--13--12----12-13-13~~-|
E -----------------------------------------------------------------|
B -----------------------------------------------------------------|
F#-----------------------------------------------------------------|
B -----------------------------------------------------------------|

===================================================================
===================================================================


Outro

Guitar 1 & 2
C#-----------------------------------------------------------------|
G#-----------------------------------------------------------------|
E -----------------------------------------------------------------|
B -7---------------------------------------------------------------|
F#-7---------------------------------------------------------------|
B -7-----------------------------------------------0/~~~~~~~~~~~~~-|

===================================================================
===================================================================
===================================================================


Tab Legend
h  - hammer-on
p  - pull-off
/  - slide up
\  - slide down
ps/- pickslide up
ps\- pickslide down
~  - let ring
pm.- palm mute
b  - bend
r  - return from bend
t  - finger tapping
*  - harmonic
x  - dead note
^  - Whammy bar
^\ - Whammy bar (hold down)

That is all! I hope this helped, and be sure to check out my cover if you are
having problems with the tab. Thanks, oh and one last thing... ROCK OUT!!!!
comments
We did not receive enough feedback on this tab! Please rate:
print report bad tab
1 2 3 4 5
I want to post or [tab]
guest
You may want to rate the tab now too:
select rating
Please do not post tabs as comments. Select "correction" instead!