Oops, an error
Loading. Please wait.

The Last Pint Tab

ver1
ver1

Whole song

Interactive

More versions @911Tabs.com
1,067 views 1 this week
no commentswrite comment
1 2 3 4 5
excellent!
x 1
Autoscroll
+/-
esc
set tempo
stop
Contributor
Difficulty
advanced
Hey! There's an official Ultimate Guitar app which is ideal
for learning songs when you're away from computer. Get the app
WARNING: You are trying to view
                                    content from Ultimate-Guitar.com
                                    in an unauthorized application,
                                    which is prohibited.

                                    Please use an official Ultimate
                                    Guitar Tabs application for iPhone,
                                    iPad or Android to access legitimate
                                    chords, guitar, bass, and drum tabs
                                    from Ultimate-Guitar.com database.

                                    Type "ultimate guitar tabs" in Apple
                                    App Store's or Android Market's
                                    search to find the application.
The Last Pint - Pierre Bensusan

tabbed by Alex "Zandy" Wight

Capo 2
(tw) = thumb wrap                                                   

     E                 E  E  E  E  E  E  E     E   E  E  E  E  E  E  E   
D||-----------------------0-----------0-----|--4p--0-----4-----0--------|
A||--5h----------------7--------0--------7--|---------7-----7--------0--|
G||--------------------------4-----4--------|---------------------4-----|
D||-----------------------------------------|---------------------------|
A||-----------------------------------0-----|------------------L--------|
D||--0-----------------------L--5--L--------|---------------------------|


  Q    E  E  E  E  E  E     E   E  E  E  E  E  Q      
--0----0-----------0-----|--4p--0-----4-----0--------|
-------------0--------7--|---------7-----7-----5~----|
----------4-----4--------|---------------------------|
-------------------------|---------------------------|
-------------------0-----|------------------L--------|
--0----L-----5--L--------|---------------------------|


                            |---3---|                     
  Q    E  E  E  E  E  E     E   E   E  E  E  E  E  E  E   
-------0-----------0--2--|--4p--2p--0--2--4--2--0--------|
--L----------0-----------|-------------------------2--0--|
----------4-----4--------|-------------------------------|
-------------------------|-------------------------------|
-------------------0-----|----------------------L--------|
--0-------L--5-----L-----|-------------------------------|


               (tw)                                             
                                                          ^     
                                        |---3---|               
  E  E  E   E  E    E  E  E       E  E  E   E   E  E   E  Q     
--0-----4p--0--5----4-----0--|---------------------2p--0--0----|
-----7-----------------7-----|--7g4--0--0h--2h--4---------5----|
-----------------------------|----------------------------7----|
-----------------------------|----------------------------0----|
-----------------------0-----|-------------------------L-------|
--0---------L--5----L--------|---------------------------------|


  Q    E  E  E  E  E  E     E  Q     E  E  E  E  E   
--L----0-----------0-----|-----4~----4-----0--------|
--L----------0--------7--|--------------7--------0--|
--L-------4-----4--------|--------------------4-----|
--L----------------------|--------------------------|
-------------------0-----|-----------------L--------|
--0-------L--5--L--------|--------------------------|


                            |---3---|                     
  Q    E  E  E  E  E  E     E   E   E  E  E  E  E  E  E   
--0----0-----------0--2--|--4p--2p--0--2--4--2--0--------|
-------------0-----------|-------------------------2--0--|
----------4-----4--------|-------------------------------|
-------------------------|-------------------------------|
-------------------0-----|----------------------L--------|
--0-------L--5--L--------|-------------------------------|


            (tw)                                           
  ^                                                        
                             |---3---|                     
  Q.     E  E    E  E  E     E   E   E  E  E  E  E  E  E   
--0-----------------0--2--|--4p--2p--0--2--4--2--0--------|
--0---------0-------------|----------------------------0--|
---------4-------4--------|-------------------------4-----|
--------------------------|-------------------------------|
--------------------0-----|----------------------L--------|
--0------L--5----L--------|-------------------------5--L--|


               (tw)                                             
                                        |---3---|               
  E  E  E   E  E    E  E  E       E  E  E   E   E  E   E  Q     
--0-----4p--0--5----4-----0--|---------------------2p--0--0----|
-----7-----------------7-----|--7g4--0--0h--2h--4---------5----|
-----------------------------|----------------------------7----|
-----------------------------|----------------------------0----|
-----------------------0-----|---------------------L-----------|
--0---------L--5----L--------|---------------------------------|


                                  (tw)                          
        |---3---|                                               
  E  E  E   E   E  E  Q     E     E    E  E  E    E  E  E  E    
--L--4--7p--4p--0--4--7~----4--|--5p---4-----0--7g4-----0------|
--L----------------------------|----------7----------5-----4b--|
--L----------------------------|-------------------------------|
--L--L-------------0--------L--|-------------------------------|
-------------------------------|----------0----------------L---|
--0-------------L--------------|--5----L-----------------------|


        |---3---|                                       |---3---|   
  E  E  E   E   E  E  E   E  E     E   E  E  E    E  E  E   E   E   
--0--4--7p--4p--0--4--7p--0--4--|--5p--4-----0---------------------|
--------------------------------|---------7-----7g4--0--0h--2h--4--|
--------------------------------|----------------------------------|
-------------------0---------L--|----------------------------------|
--------------------------------|---------0-------------L----------|
--0-------------L---------------|----------------------------------|


                                    (tw)                          
        |---3---|                                                 
  E  E  E   E   E  S. Q     T E     E    E  E  E    E  E  E  E    
--0--4--7p--4p--0--4h-7~----L-4--|--5p---4-----0--7g4-----0------|
---------------------------------|----------7----------5-----4b--|
---------------------------------|-------------------------------|
-------------------0----------L--|-------------------------------|
---------------------------------|----------0----------------L---|
--0-------------L----------------|--5----L-----------------------|


  (tw)                (tw)                                           
                                 |---3---|        |---3---|          
  E    E  E  E  E  E  E    E     E   E   E  E  E  E   E   E   Q      
--0-------0-----------0----2--|--4p--2p--0--2--4--4p--2p--0---0-----|
-------4--------0-------------|-------------------------------5-----|
-------------4-----4----------|-------------0----------------(x)----|
------------------------------|-------------------4-------L---0-----|
------------------------------|-------------------------------------|
--4----L--------5--L--2----L--|-------------------------------0-----|


                                  (tw)                          
        |---3---|                                               
  E  E  E   E   E  E  Q     E     E    E  E  E    E  E  E  E    
--L--4--7p--4p--0--4--7~----4--|--5p---4-----0--7g4-----0------|
-------------------------------|----------7----------5-----4b--|
-------------------------------|-------------------------------|
--L-----L----------0--------L--|-------------------------------|
-------------------------------|----------0----------------L---|
--0-------------L--------------|--5----L-----------------------|


                                   (tw)                              
        |---3---|                                        |---3---|   
  E  E  E   E   E  E  E   E  E     E    E  E  E    E  E  E   E   E   
--0--4--7p--4p--0--4--7p--0--4--|--5p---4-----0---------------------|
--------------------------------|----------7-----7g4--0--0h--2h--4--|
--------------------------------|-----------------------------------|
-------------------0---------L--|-----------------------------------|
--------------------------------|----------0-------------L----------|
--0-------------L---------------|--5--------------------------------|


                                       (tw)                          
     3    3                                                          
  E  T S. Q     T  S. S  Q     T E     E    E  E  E    E  E  E  E    
--0--L-4--7p----4p-0--4h-7~----L-4--|--5p---4-----0--7g4-----0------|
------------------------------------|----------7----------5-----4b--|
------------------------------------|-------------------------------|
----------------------0----------L--|-------------------------------|
------------------------------------|----------0----------------L---|
--0----------------L----------------|--5----L-----------------------|


  (tw)                (tw)                                          
                                 |---3---|        |--3--|           
  E    E  E  E  E  E  E    E     E   E   E  E  E  S  S  S  E  Q     
--0-------0-----------0----2--|--4p--2p--0--2--4--2h-4p-2p-0-------|
-------4--------0-------------|-------------------------------5----|
-------------4-----4----------|------------------------------------|
------------------------------|------------------------------------|
------------------------------|------------------------------------|
--4----L--5--------L--2----L--|------------------------------------|


             (tw)                                      
  Q    E  E  E    E  E  E     E  Q     E  E  E  E  E   
-------0-------------0-----|-----4~----4-----0--------|
--L----------0----------7--|--------------7--------0--|
----------4-------4--------|--------------------4-----|
---------------------------|--------------------------|
---------------------0-----|-----------------L--------|
--0-------L--5----L--------|--------------------------|


                              |---3---|                     
  E   E  E  E  E  E  E  E     E   E   E  E  E  E  E  E  E   
---------0-----------0--2--|--4p--2p--0--2--4--2--0--------|
--5h--7--------0-----------|-------------------------2--0--|
------------4-----4--------|-------------------------------|
---------------------------|-------------------------------|
---------------------0-----|----------------------L--------|
--0---------L--5--L--------|-------------------------------|


  Q    E  E  E  E  E  E      E  Q    E  E  E  E  E   
--0----------------0------|-----4----4-----0--------|
-------5-----0--------7~--|--L--L-------7--------0--|
----------4-----4---------|-------------------4-----|
--------------------------|-------------------------|
-------------------0------|--L-------------L--------|
--0-------L--5--L---------|-------------------------|


               (tw)                                              
                                        |---3---|                
  E  E  E   E  E    E  E  E       E  E  E   E   E  E   E  E  E   
--0-----4p--0--5----4-----0--|---------------------2p--0--0-----|
-----7-----------------7-----|--7g4--0--0h--2h--4------------4--|
-----------------------------|----------------------------------|
-----------------------------|---------------------4---L--2--L--|
-----------------------0-----|---------------------L------------|
--0---------L--5----L--------|----------------------------------|


  E  Q    E  E  E  E  E     E  Q     E  E  E  E  E   
-----0-------------0-----|-----4~----4-----0--------|
-----5-------0--------7--|--L-----------7--------0--|
----------4-----4--------|--------------------4-----|
-------------------------|--------------------------|
-------------------0-----|--L-----------------------|
--0-------L--5--L--------|--------------------------|


                            |---3---|         |--3--|           
  Q    E  E  E  E  E  E     E   E   E  E   E  S  S  S  E  Q     
-------0-----------0--2--|--4p--2p--0--2h--4--2h-4p-2p-0--L----|
--5----------0-----------|-------------L------------------5----|
----------4-----4--------|-------------0------------L----------|
-------------------------|--------------------------------4----|
--2-------L--------------|-------------------------------------|
-------------5--L--------|-------------------------------------|


                            |---3---|                      
  Q    E  E  E  E  E  E     E   E   E  E   E  E  E  E  E   
-------0-----------0--2--|--4p--2p--0--2h--4--2--0--------|
--L----------0-----------|-----------------------------0--|
----------4-----4--------|--------------------------4-----|
--L----------------------|--------------------------------|
-------------------0-----|-----------------------------L--|
--0-------L--5--L--------|--------------------------------|


               (tw)                                           
                                        |--3--|               
  E  E  E   E  E    E  E  E       E  E  E  E  E  E   E  Q     
--0-----4p--0--5p---4-----0--|-------------------2p--0-------|
-----7-----------------7-----|--7g4--0--0--2--4---------5----|
-----------------------------|-------------------0---L-------|
-----------------------------|--------------------------4----|
-----------------------0-----|----------L--------------------|
--0---------L--5----L--------|-------------------------------|


                                 (tw)                          
        |---3---|                                              
  E  E  E   E   E  E  Q    E     E    E  E  E    E  E  E  E    
-----4--7p--4p--0--4--7----4--|--5p---4-----0--7g4-----0------|
--L---------------------------|----------7----------5-----4b--|
------------------------------|-------------------------------|
--L----------------0-------L--|-------------------------------|
------------------------------|----------0----------------L---|
--0--L------------------------|--5----L-----------------------|


                   (tw)              (tw)                              
        |---3---|                                          |---3---|   
  E  E  E   E   E  E    E  E   E     E    E  E  E    E  E  E   E   E   
--0--4--7p--4p--0--4----7--0h--4--|--5p---4-----0---------------------|
----------------------------------|----------7-----7g4--0--0h--2h--4--|
----------------------------------|-----------------------------------|
----------------------------------|-----------------------------------|
----------------------------------|----------0---------------------L--|
--0-------------L--4----L---------|--5----L---------------------------|


                   (tw)            (tw)                         
        |---3---|                                               
  E  E  E   E   E  E    Q    E     E    E  E  E    E  E  E  E   
--0--4--7p--4p--0--4----7----4--|--5p---4-----0--7g4-----0-----|
--------------------------------|----------7----------5-----4--|
--------------------------------|------------------------------|
--------------------------------|------------------------------|
--------------------------------|----------0----------------L--|
--0-------------L--4----L-------|--5----L----------------------|


                              |---3---|         |---3---|        
  E   E  E  E  E  E  E  E     E   E   E  E   E  E   E   E  Q     
--0------0--L--------0--2--|--4p--2p--0--2h--4--4p--2p--0-------|
-----/7--------0-----------|-------------------------------5----|
------------4-----4--------|-------------0---L------------------|
---------------------------|--------------------4-------L-------|
--2---L--------------------|------------------------------------|
---------------------------|------------------------------------|


                                  (tw)                          
        |---3---|                                               
  E  E  E   E   E  E  Q     E     E    E  E  E    E  E  E  E    
-----4--7p--4p--0--4--7~----4--|--5p---4-----0--7g4-----0------|
--L----------------------------|----------7----------5-----4b--|
-------------------------------|-------------------------------|
-------------------0--------L--|-------------------------------|
-------------------------------|----------0----------------L---|
--0-------------L--------------|--5----L-----------------------|


                                         (tw)                              
        |---3---|                                              |---3---|   
  E  E  E   E   E  E   E    T   S. E     E    E  E  E    E  E  E   E   E   
--0--4--7p--4p--0--7--12--(12)\-0--4--|--5p---4-----0---------------------|
--------------------------------------|----------7-----7g4--0--0h--2h--4--|
--------------------------------------|-----------------------------------|
-------------------0------------L-----|-----------------------------------|
--------------------------------------|----------0-------------L----------|
--0---------L-------------------------|--5----L---------------------------|


                          (tw)       (tw)                          
        |---3---|                                                  
  E  E  E   E   E  E  E   E    E     E    E  E  E    E  E  E  E    
--0--4--7p--4p--0--4--7~--0----4--|--5p---4-----0--7g4-----0------|
----------------------------------|----------7----------5-----4b--|
----------------------------------|-------------------------------|
-------------------0------L-------|-------------------------------|
----------------------------------|----------0----------------L---|
--0---------L-------------4----L--|--5----L-----------------------|


                                                ^         
                               |---3---|                  
  E   E  E  E  E  E  E   E     E   E   E  E  E  H         
--0------0--L--------0h--2--|--4p--2p--0--2--4-----------|
-----/7--------0------------|-------------------0--------|
------------4-----4---------|-------------------2--------|
----------------------------|-------------------2--------|
--2---L---------------------|-------------------0--------|
---------------5--L---------|----------------------------|


                     |--3--|            |--3--|             
  H        E   E     S  S  S  E  E   E  S  S  S  E  E   E   
-----------4h--5--|--4h-5p-4p-0--5h--7--5h-7p-5p-0--4h--5--|
--L---------------|----------------------------------------|
--L---------------|----------------------------------------|
--L---------------|---------------------0--------L---------|
--L---------------|----------------------------------------|
------------------|--0--------L---------------------0---L--|


  |--3--|            |----3---|          
  S  S  S  E  E   E  S  S  E  E  E   E   
--4h-5p-4p-0--7h--9--7h-9p-7-----4h--5--|
----------------------------------------|
----------------------------------------|
---------------------0--------L---------|
----------------------------------------|
----------------------------------------|


  |--3--|            |--3--|             
  S  S  S  E  E   E  S  S  S  E  E   E   
--4h-5p-4p-0--5h--7--5h-7p-5p-0--4h--5--|
----------------------------------------|
----------------------------------------|
---------------------0--------L---------|
----------------------------------------|
--0--------L---------------------0---L--|


  |--3--|     |---3---|               
  S  S  S  E  E   E   E  Q    E   E   
--4h-5p-4p-0--4p--2p--0--0----4h--5--|
-------------------------------------|
-------------------------------------|
-------------------------0--------L--|
-------------------------------------|
-------------------------------------|


                      (tw)                 
  |--3--|             |---3--|             
  S  S  S  E  E   E   S   S  S  E  E   E   
--4h-5p-4p-0--5h--7---5h--7p-5p-0--4h--5--|
------------------------------------------|
------------------------------------------|
------------------------------------------|
-----------------------------------0------|
--0--------L---------(5)-----L------------|


                      (tw)              
  |--3--|             3             3   
  S  S  S  E  S  E  S S    Q    E   E   
--4h-5p-4p-0--7h-9--L-9p---7----4h--5--|
---------------------------------------|
---------------------------------------|
---------------------------------------|
-----------------L---------------------|
----------------------9----L-----------|


                     (tw)                  
  |--3--|            |---3---|             
  S  S  S  E  E   E  S    S  S  E  E   E   
--4h-5p-4p-0--5h--7--5h---7p-5p-0--4h--5--|
------------------------------------------|
------------------------------------------|
------------------------------------------|
-----------------------------------0------|
--0-----------L------5-------L------------|


  |--3--|     |---3---|                
  S  S  S  E  E   E   E  E  E  E   E   
--4h-5p-4p-0--4p--2p--0-----0--4h--5--|
-------------------------2------------|
--------------------------------------|
-------------------------0--L---------|
--------------L-----------------------|
--------------------------------------|


  |--3--|            |--3--|             
  S  S  S  E  E   E  S  S  S  E  E   E   
--4h-5p-4p-0--5h--7--5h-7p-5p-0--4h--5--|
----------------------------------------|
----------------------------------------|
---------------------0-----L------------|
----------------------------------------|
--0--------L---------------------0---L--|


  |--3--|            |----3---|          
  S  S  S  E  E   E  S  S  E  E  E   E   
--4h-5p-4p-0--7h--9--7h-9p-7-----4h--5--|
----------------------------------------|
----------------------------------------|
---------------------0--------L---------|
----------------------------------------|
----------------------------------------|


                      (tw)           
  |--3--|                            
  S  S  S  E  E   E   E   E  E   E   
--4h-5p-4p-0--5h--7---5p--0--4h--5--|
------------------------------------|
------------------------------------|
------------------------------------|
-----------------------------0------|
--0--------L---------(5)--L---------|


  |--3--|     |---3---|                
  S  S  S  E  E   E   E  E  E  E   E   
--4h-5p-4p-0--4p--2p--0-----0--4h--5--|
-------------------------2------------|
--------------------------------------|
--------------------------------------|
-------------------------------L------|
--------------------------------------|


                      (tw)                 
  |--3--|             |---3--|             
  S  S  S  E  E   E   S   S  S  E  E   E   
--4h-5p-4p-0--5h--7---5h--7p-5p-0--4h--5--|
------------------------------------------|
------------------------------------------|
------------------------------------------|
-----------------------------------0------|
--0--------L---------(5)-----L------------|


                      (tw)               
  |--3--|             3              3   
  S  S  S  E  S  E  S S    Q    E    E   
--4h-5p-4p-0--7h-9--L-9p---7----9h--12--|
----------------------------------------|
----------------------------------------|
----------------------L-----------------|
-----------------L----------------------|
----------------------9----L------------|


  |---3--|                                     
  S   S  S E   E    E   T   T   S E   E    E   
--9h-12p-9-0--12h--14--12h-14p-12-0--12h--14--|
----------------------------------------------|
----------------------------------------------|
----------------------------------------------|
--0-----------------L-------------------------|
------------------------0---------L-----------|


   T   T   S E   E    E   T   T   S  E    E    E   
--12h-14p-12-0--12h--14--12h-14p-12-(0)--12h--14--|
--------------------------------------------------|
--------------------------------------------------|
---0---------L------------------------------------|
--------------------------------------------------|
-----------------0------------------------L-------|


   T   T   S E   E    E   T   T   E.   T   T   E.   
--12h-14p-12-0--14h--16--14h-16p-14---12h-14p-12---|
---------------------------------------------------|
---------------------------------------------------|
---0---------L-------------------------------------|
---------------------------------------------------|
--------------------------0--------------------L---|


  Q     E    E   T   T   E.  Q       Q     E    E  T   T  E.  T  T  E.   
--9----12h--14--12h-14p-12---9----|--7~----9h--12--9h-12p-9---7h-9p-7---|
----------------------------------|-------------------------------------|
----------------------------------|-------------------------------------|
--0--------------------------L----|--0----------L-----------------------|
----------------------------------|-------------------------------------|
----------------------------------|----------------0----------------L---|


  T  T  E.  Q    E   Q    E     Q     E    E   
--4h-7p-4---2----------------|-------14h--16--|
-----------------7s--9----L--|----------------|
-----------------------------|----------------|
--0---------L----0---L----0--|--L-------------|
-----------------------------|----------------|
---------------------L-------|----------------|


   T   T   E.   T   T   E.  Q     E    E   
--14h-16p-14---12h-14p-12---9----12h--14--|
------------------------------------------|
------------------------------------------|
----------------------------0----------L--|
------------------------------------------|
---0--------------------L-----------------|


   T   T   E.  T   T  E.  Q    E    E   
--12h-14p-12---9h-12p-9---7----9h--12--|
---------------------------------------|
---------------------------------------|
--------------------------0---------L--|
---------------------------------------|
---0------------------L----------------|


  T   T  E.  T  T  E.  T  T  E.  T  T  E.     W                 
--9h-12p-9---7h-9p-7---4h-7p-4---2h-4p-2---|--0----------------|
-------------------------------------------|-------------------|
-------------------------------------------|-------------------|
-----------------------0---------L---------|--0----------------|
-------------------------------------------|-------------------|
--0----------------L-----------------------|-------------------|


                           |---3---|                      
  Q.     E  E  E  E  E     E   E   E  E  E  E  E  E   E   
--0------L--------0--2--|--4p--2p--0--2--4--2--0---------|
------------0-----------|-------------------------2p--0--|
---------4-----4--------|--------------------------------|
------------------------|--------------------------------|
------------------0-----|-----------------------------L--|
--0------L--5--L--------|--------------------------------|


                             |---3---|                      
  E  E  E  E  E  E  E  E     E   E   E  E  E  E   E  Q      
--0--2--0--L--------0--2--|--4p--2p--0--2--4--2p--0--L-----|
--------------0--L--------|--------------------------7~----|
-----------4-----4--------|--------------------------------|
--------------------------|--------------------------------|
--------------------0-----|--------------------------L-----|
--0--------L--5--L--------|--------------------------------|


                            |---3---|                     
  Q    E  E  E  E  E  E     E   E   E  E  E  E  E  E  E   
-------0--L--------0--2--|--4p--2p--0--2--4--2--0--------|
--L----------0--L--------|----------------------------0--|
----------4-----4--------|-------------------------4-----|
-------------------------|-------------------------------|
-------------------0-----|----------------------------L--|
--0-------L--5--L--------|-------------------------------|


               (tw)                                             
                                        |---3---|               
  E  E  E   E  E    E  E  E       E  E  E   E   E  E   E  Q     
--0--2--4p--0--5p---4-----0--|---------------------2p--0-------|
-----------------------7-----|--7g4--0--0h--2h--4---------5----|
-----------------------------|----------------------------7----|
-----------------------------|----------------------------0----|
-----------------------0--L--|----L-----L----------------------|
--0---------L--5----L--------|---------------------------------|


                                  (tw)                          
        |---3---|                                               
  E  E  E   E   E  E  Q     E     E    E  E  E    E  E  E  E    
-----4--7p--4p--0--4--7~----4--|--5p---4-----0--7g4-----0------|
--L----------------------------|----------7----------5-----4b--|
--L----------------------------|-------------------------------|
-----L-------------0--------L--|-------------------------------|
-------------------------------|----------0----------------L---|
--0-----L----------------------|--5----L-----------------------|


                                   (tw)                              
        |---3---|                                        |---3---|   
  E  E  E   E   E  E  E  E   E     E    E  E  E    E  E  E   E   E   
--0--4--7p--4p--0--4--7--0h--4--|--5p---4-----0---------------------|
--------------------------------|----------7-----7g4--0--0h--2h--4--|
--------------------------------|-----------------------------------|
-------------------0---------L--|-----------------------------------|
--------------------------------|----------0---------------------L--|
--0-------------L---------------|--5----L---------------------------|


                                      (tw)                          
     3                                                              
  E  T. S. E   S  S. S  Q     T E     E    E  E  E    E  E  E  E    
--0--L--4--7p--4p-0--4h-7~----L-4--|--5p---4-----0--5g4-----0------|
-----------------------------------|----------7----------5-----4b--|
-----------------------------------|-------------------------------|
---------------------0----------L--|-------------------------------|
-----------------------------------|----------0-------------L------|
--0---------------L----------------|--5----L-----------------------|


                              |---3---|                      
  E   E  E  E  E  E  E  E     E   E   E  E  E  E   E  Q      
--0------0--L--------0--2--|--4p--2p--0--2--4--2p--0--------|
-----/7--------0-----------|--------------------------5~----|
------------4-----4--------|--------------------------------|
---------------------------|--------------------------4-----|
---------------------0-----|----------L---------------------|
--0---------L--5--L--------|--------------------------------|


                                  (tw)                          
        |---3---|                                               
  E  E  E   E   E  E  Q     E     E    E  E  E    E  E  E  E    
--------7p--4p--0--4--7~----4--|--5p---4-----0--7g4-----0------|
--L----------------------------|----------7----------5-----4b--|
-------------------------------|-------------------------------|
--L----------------0--------L--|-------------------------------|
-----0-------------------------|----------0----------------L---|
--0-------------L--------------|--5----L-----------------------|


        |---3---|                       
  E  E  E   E   E  E   E    T    S. E   
--0--4--7p--4p--0--7--12--(12)\-(0)-4--|
---------------------------------------|
---------------------------------------|
-------------------0-------------L-----|
---------------------------------------|
--0---------L--------------------------|


  (tw)                                                                 
                        |---3---|           |---3---|                  
  E    E  E  E    E  E  E   E   E     E  E  E   E   E  S T Q     T E   
--5p---4-----0---------------------|--0--4--7p--4p--0--4-L-7~----L-4--|
----------7-----7g4--0--0h--2h--4--|----------------------------------|
-----------------------------------|----------------------------------|
-----------------------------------|-------------------0-----------L--|
----------0-------------L----------|----------------------------------|
--5----L---------------------------|--0---------L---------------------|


  (tw)                            (tw)                 (tw)     
  E    E  E  E    E  E  E  E      E    E   E  E  E  E  E    E   
--5p---4-----0--7g4-----0------|--0--------0--L--------0----2--|
----------7----------5-----4b--|-------4b--------0--L----------|
-------------------------------|--------------4-----4----------|
-------------------------------|-------------------------------|
----------0----------------L---|-------------------------------|
--5----L-----------------------|--4--------L-----5--L--2----L--|


  |---3---|                     
  E   E   E  E  E  S  Q.     S  
--4p--2p--0--2--4--4p-2------L-|
-------------------0--L------L-|
-------------------------------|
-------------------------------|
-------------------0--L------L-|
-------------------------------|


  free time speed scales...                          too much reverb to get
                                               |--3--|                     
  S                         S  S Q    S  S S S S  S  S                     
---------------------------------0-----------------------------------------|
--0------------------------------------------------------------------------|
----------------------------4h-6------6p-4---0-----------------------------|
-------------------------------------------7---4h-5h-7---------------------|
---------------------------------------------------------------------------|
---------------------------------------------------------------------------|


  S S  S  S S S Q    S S S S S S    W                   W                  
---------------------------------|-------------------|-------------------||
---------------------------------|-------------------|-------------------||
---------------------------------|-------------------|-------------------||
--0-------------0----------------|-------------------|-------------------||
----4p-2p-0-2-4------4-2-0-------|-------------------|-------------------||
---------------------------5-4-2-|--0----------------|--L----------------||




Duration Legend
---------------
W - whole
H - half
Q - quarter
E - 8th
S - 16th
T - 32nd
X - 64th
. - note dotted
|-n-|  - n-tuplets


Tablature Legend
----------------
L - tied note
x - dead note
g - grace note
(n) - ghost note
> - accentuded note
NH - natural harmonic
AH - artificial harmonic
TH - tapped harmonic
SH - semi harmonic
PH - pitch harmonic
h - hammer on
p - pull off
b - bend
br - bendRelease
pb - preBend
pbr - preBendRelease
brb - bendReleaseBend
\n/ - tremolo bar dip
\n - tremolo bar dive
-/n - tremolo bar Release up
/n\ - tremolo bar inverted dip
/n - tremolo bar return
-\n - tremolo bar Release down
S - shift slide
s - legato slide
/ -  slide into from below or out of upwards
\ -  slide into from above or out of downwards
~ - vibrato
W - wide vibrato
tr - trill
TP - tremolo picking
T - tapping
S - slap
P - pop
< - fade in
^ - brush up
v - brush down
comments
We did not receive enough feedback on this tab! Please rate:
print report bad tab
1 2 3 4 5
I want to post or [tab]
guest
You may want to rate the tab now too:
select rating
Please do not post tabs as comments. Select "correction" instead!