Oops, an error
Loading. Please wait.

Bring Me Down Tab

ver3
ver3

Whole song

More versions @911Tabs.com
9,650 views 6 this week
5 commentsread comments
1 2 3 4 5
excellent!
x 8
Autoscroll
+/-
esc
set tempo
stop
Contributor
Difficulty
Tuning
intermediate
C G C F A D
WARNING: You are trying to view
                                    content from Ultimate-Guitar.com
                                    in an unauthorized application,
                                    which is prohibited.

                                    Please use an official Ultimate
                                    Guitar Tabs application for iPhone,
                                    iPad or Android to access legitimate
                                    chords, guitar, bass, and drum tabs
                                    from Ultimate-Guitar.com database.

                                    Type "ultimate guitar tabs" in Apple
                                    App Store's or Android Market's
                                    search to find the application.
Artist: Pillar
Album: Where Do We Go From Here
Song: Bring Me Down
Tuning: Drop C

Intro:
D|------------------------------|-----------------------------|
A|------------------------------|-----------------------------|
F|----------------------5-5-----|-----------------------------|
C|-3-3-3--3-3-1-3--3-3--5-5-6-6-|-1-1--1-1--8-----------------|
G|-3-3-3--3-3-1-3--3-3--3-3-6-6-|-1-1--1-1--8-----------------|
C|-3-3-3--3-3-1-3--3-3------6-6-|-1-1--1-1--8--0-0-0-8p0-6-6--|

D|----------------------------|-----------------------------|
A|----------------------------|-----------------------------|
F|--------------------5-5-----|-----------------------------|
C|-3-3--3-3-1-3--3-3--5-5-6-6-|-1-1--1-1--8-----------------|
G|-3-3--3-3-1-3--3-3--3-3-6-6-|-1-1--1-1--8-----------------|
C|-3-3--3-3-1-3--3-3------6-6-|-1-1--1-1--8--0-0-0-8p0-6-6--|

D|----------------------------|-----------------------------|
A|----------------------------|-----------------------------|
F|--------------------5-5-----|-----------------------------|
C|-3-3--3-3-1-3--3-3--5-5-6-6-|-1-1--1-1--8-----------------|
G|-3-3--3-3-1-3--3-3--3-3-6-6-|-1-1--1-1--8-----------------|
C|-3-3--3-3-1-3--3-3------6-6-|-1-1--1-1--8--0-0-0-8p0-6-6--|

D|----------------------------|--------------|
A|----------------------------|--------------|
F|--------------------5-5-----|-----------6~-|
C|-3-3--3-3-1-3--3-3--5-5-6-6-|-1-1--1-1--6~-|
G|-3-3--3-3-1-3--3-3--3-3-6-6-|-1-1--1-1--4~-|
C|-3-3--3-3-1-3--3-3------6-6-|-1-1--1-1-----|

VERSE 1:

Guitars 1 & 2:
D|--------------------------------|------------------------------------|
A|--------------------------------|------------------------------------|
F|--------------------------------|------------------------------------|
C|------6-6------5-5------8-8-8-8-|----------8-8----------6----6-------|
G|-8-8------8-8------8-8----------|-6-6-6-6------6-6--4-4---4----4-----|
C|--------------------------------|--------------------------------6-6-|
PM . .      . .      . .            . . . .           . .          . .

D|----------------------------------|-----------------------------------|
A|----------------------------------|-----------------------------------|
F|----------------------------------|-------------------------------6\5-|
C|--------6-6------5-5------8-8-8-8-|----------8-8----------6--6h8------|
G|-8-8-8------8-8------8-8----------|-6-6-6-6------6-6--4-4-------------|
C|----------------------------------|-----------------------------------|
PM . . .      . .      . .            . . . .           . .

D|----------------------------------|------------------------------------|
A|----------------------------------|------------------------------------|
F|----------------------------------|------------------------------------|
C|--------6-6------5-5------8-8-8-8-|----------8-8----------6----6-------|
G|-8-8-8------8-8------8-8----------|-6-6-6-6------6-6--4-4---4----4-----|
C|----------------------------------|--------------------------------6-6-|
PM . . .      . .      . .            . . . .           . .          . .

D|----------------------------------|------------------------------------|
A|----------------------------------|------------------------------------|
F|----------------------------------|--------------------------------6\5-|
C|--------6-6------5-5------8-8-8-8-|----------8-8----------6--6h8-------|
G|-8-8-8------8-8------8-8----------|-6-6-6-6------6-6--4-4--------------|
C|----------------------------------|------------------------------------|
PM . . .      . .      . .            . . . .           . .

D|----------------------------------|------------------------------------|
A|----------------------------------|------------------------------------|
F|----------------------------------|------------------------------------|
C|--------6-6------5-5------8-8-8-8-|----------8-8----------6----6-------|
G|-8-8-8------8-8------8-8----------|-6-6-6-6------6-6--4-4---4----4-----|
C|----------------------------------|--------------------------------6-6-|
PM . . .      . .      . .            . . . .           . .          . .

D|----------------------------------|---------------------|
A|----------------------------------|---------------------|
F|----------------------------------|-------------------6-|
C|--------6-6------5-5------8-8-8-8-|----------8-8------6-|
G|-8-8-8------8-8------8-8----------|-6-6-6-6------6-6--4-|
C|----------------------------------|---------------------|
PM . . .      . .      . .            . . . .      . .

CHOURUS:

Guitars 1 & 2:
D|------------------------------|-----------------------------|
A|------------------------------|-----------------------------|
F|----------------------5-5-----|-----------------------------|
C|-3-3-3--3-3-1-3--3-3--5-5-6-6-|-1-1--1-1--8-----------------|
G|-3-3-3--3-3-1-3--3-3--3-3-6-6-|-1-1--1-1--8-----------------|
C|-3-3-3--3-3-1-3--3-3------6-6-|-1-1--1-1--8--0-0-0-8p0-6-6--|

D|----------------------------|-------------------------------|
A|----------------------------|--------------4-4-4--4/6-6-6\-|
F|--------------------5-5-----|--------------6-6-6--6/8-8-8\-|
C|-3-3--3-3-1-3--3-3--5-5-6-6-|-1-1--1-1--8--6-6-6--6/8-8-8\-|
G|-3-3--3-3-1-3--3-3--3-3-6-6-|-1-1--1-1--8--4-4-4--4/6-6-6\-|
C|-3-3--3-3-1-3--3-3------6-6-|-1-1--1-1--8------------------|

D|----------------------------|-----------------------------|
A|----------------------------|-----------------------------|
F|--------------------5-5-----|-----------------------------|
C|-3-3--3-3-1-3--3-3--5-5-6-6-|-1-1--1-1--8-----------------|
G|-3-3--3-3-1-3--3-3--3-3-6-6-|-1-1--1-1--8-----------------|
C|-3-3--3-3-1-3--3-3------6-6-|-1-1--1-1--8--0-0-0-8p0-6-6--|

D|----------------------------|----------------------------|
A|----------------------------|----------------------------|
F|--------------------5-5-----|--------------6-6-6-6/8-8/T-|
C|-3-3--3-3-1-3--3-3--5-5-6-6-|-1-1--1-1--8--6-6-6-6/8-8/x-| T=10th Fret
G|-3-3--3-3-1-3--3-3--3-3-6-6-|-1-1--1-1--8--4-4-4-4/6-6/8-|
C|-3-3--3-3-1-3--3-3------6-6-|-1-1--1-1--8----------------|



VERSE 2:

Guitars 1 & 2:
D|--------------------------------|------------------------------------|
A|--------------------------------|------------------------------------|
F|--------------------------------|------------------------------------|
C|------6-6------5-5------8-8-8-8-|----------8-8----------6----6-------|
G|-8-8------8-8------8-8----------|-6-6-6-6------6-6--4-4---4----4-----|
C|--------------------------------|--------------------------------6-6-|
PM . .      . .      . .            . . . .           . .          . .

D|----------------------------------|------------------------------------|
A|----------------------------------|------------------------------------|
F|----------------------------------|--------------------------------6\5-|
C|--------6-6------5-5------8-8-8-8-|----------8-8----------6--6h8-------|
G|-8-8-8------8-8------8-8----------|-6-6-6-6------6-6--4-4--------------|
C|----------------------------------|------------------------------------|
PM . . .      . .      . .            . . . .           . .

D|----------------------------------|------------------------------------|
A|----------------------------------|------------------------------------|
F|----------------------------------|------------------------------------|
C|--------6-6------5-5------8-8-8-8-|----------8-8----------6----6-------|
G|-8-8-8------8-8------8-8----------|-6-6-6-6------6-6--4-4---4----4-----|
C|----------------------------------|--------------------------------6-6-|
PM . . .      . .      . .            . . . .           . .          . .

D|----------------------------------|---------------------|
A|----------------------------------|---------------------|
F|----------------------------------|-------------------6-|
C|--------6-6------5-5------8-8-8-8-|----------8-8------6-|
G|-8-8-8------8-8------8-8----------|-6-6-6-6------6-6--4-|
C|----------------------------------|---------------------|
PM . . .      . .      . .            . . . .      . .


CHOURUS:
D|------------------------------|-------------------------------|
A|------------------------------|-------------------------------|
F|----------------------5-5-----|-------------------------------|
C|-3-3-3--3-3-1-3--3-3--5-5-6-6-|-1-1--1-1--8-------------------|
G|-3-3-3--3-3-1-3--3-3--3-3-6-6-|-1-1--1-1--8-------------------|
C|-3-3-3--3-3-1-3--3-3------6-6-|-1-1--1-1--8--0-0-0--8p0-6-6-\-|

D|----------------------------|-----------------------------|
A|----------------------------|--------------4-4-4-4/6-6-6\-|
F|--------------------5-5-----|--------------6-6-6-6/8-8-8\-|
C|-3-3--3-3-1-3--3-3--5-5-6-6-|-1-1--1-1--8--6-6-6-6/8-8-8\-|
G|-3-3--3-3-1-3--3-3--3-3-6-6-|-1-1--1-1--8--4-4-4-4/6-6-6\-|
C|-3-3--3-3-1-3--3-3------6-6-|-1-1--1-1--8-----------------|

D|----------------------------|-------------------------------|
A|----------------------------|-------------------------------|
F|--------------------5-5-----|-------------------------------|
C|-3-3--3-3-1-3--3-3--5-5-6-6-|-1-1--1-1--8-------------------|
G|-3-3--3-3-1-3--3-3--3-3-6-6-|-1-1--1-1--8-------------------|
C|-3-3--3-3-1-3--3-3------6-6-|-1-1--1-1--8--0-0-0--8p0-6-6-\-|

D|----------------------------|----------------------------|
A|----------------------------|--------------4-4-4-4/6-6---|
F|--------------------5-5-----|--------------6-6-6-6/8-8---|
C|-3-3--3-3-1-3--3-3--5-5-6-6-|-1-1--1-1--8--6-6-6-6/8-8---|
G|-3-3--3-3-1-3--3-3--3-3-6-6-|-1-1--1-1--8--4-4-4-4/6-6---|
C|-3-3--3-3-1-3--3-3------6-6-|-1-1--1-1--8----------------|


INTERLUDE:

Guitar 1:
D|------------------------------|----------------------------|
A|------------------------------|----------------------------|
F|------------------------------|----------------------------|
C|------------------------------|----------------------------|
G|------------------------------|----------------------------|
C|-3--1-3--3-3-1-3--1-3--3-1--3-|-3--1-3--3-3-1-3--1-3--3-1--|
PM .  . .  . . . .  . .  . .  .   .  . .  . . . .  . .  . ^Vibrato


Guitars 1 & 2(D.S.):
D|---------------------------|
A|---------------------------|
F|---------------------------|
C|-3-1-3--3-3-1-3--1-3--3-1--|
G|-3-1-3--3-3-1-3--1-3--3-1--|
C|-3-1-3--3-3-1-3--1-3--3-1--|
PM   .             .

BRIDGE:
D|------------------------------------|-----------------------------------|
A|------------------------------------|-----------------------------------|
F|-6-6-6-6--6-6-6-6--6-6-6-6--6/8-8-8-|-6-6-6--6-6-6-6--6-6-6-6--6/8-8-8\-|
C|-6-6-6-6--6-6-6-6--6-6-6-6--6/8-8-8-|-6-6-6--6-6-6-6--6-6-6-6--6/8-8-8\-| Then goto D.S. 2x
G|-4-4-4-4--4-4-4-4--4-4-4-4--4/6-6-6-|-4-4-4--4-4-4-4--4-4-4-4--4/6-6-6\-|
C|------------------------------------|-----------------------------------|

D|-------------------------------------|----------------------------------|
A|-------------------------------------|----------------------------------|
F|-6-6-6-6--6-6-6-6--6-6-6-6--6/8-8-8--|-6-6-6--6-6-6-6--6-6-6-6--6/T-T-T-|
C|-6-6-6-6--6-6-6-6--6-6-6-6--6/8-8-8--|-6-6-6--6-6-6-6--6-6-6-6--6/T-T-T-| T=10th fret
G|-4-4-4-4--4-4-4-4--4-4-4-4--4/6-6-6--|-4-4-4--4-4-4-4--4-4-4-4--4/8-8-8-|
C|-------------------------------------|----------------------------------|

D|-------------------------------------|
A|-------------------------------------|
F|-6-6-6-6--6-6-6-6--6-6-6-6--6/8-8-8\-|
C|-6-6-6-6--6-6-6-6--6-6-6-6--6/8-8-8\-|
G|-4-4-4-4--4-4-4-4--4-4-4-4--4/6-6-6\-|
C|-------------------------------------|

CHOURUS:
D|------------------------------|-----------------------------|
A|------------------------------|-----------------------------|
F|----------------------5-5-----|-----------------------------|
C|-3-3-3--3-3-1-3--3-3--5-5-6-6-|-1-1--1-1--8-----------------|
G|-3-3-3--3-3-1-3--3-3--3-3-6-6-|-1-1--1-1--8-----------------|
C|-3-3-3--3-3-1-3--3-3------6-6-|-1-1--1-1--8--0-0-0-8p0-6-6--|

D|----------------------------|-----------------------------|
A|----------------------------|--------------4-4-4-4/6-6-6\-|
F|--------------------5-5-----|--------------6-6-6-6/8-8-8\-|
C|-3-3--3-3-1-3--3-3--5-5-6-6-|-1-1--1-1--8--6-6-6-6/8-8-8\-|
G|-3-3--3-3-1-3--3-3--3-3-6-6-|-1-1--1-1--8--4-4-4-4/6-6-6\-|
C|-3-3--3-3-1-3--3-3------6-6-|-1-1--1-1--8-----------------|

D|----------------------------|-----------------------------|
A|----------------------------|-----------------------------|
F|--------------------5-5-----|-----------------------------|
C|-3-3--3-3-1-3--3-3--5-5-6-6-|-1-1--1-1--8-----------------|
G|-3-3--3-3-1-3--3-3--3-3-6-6-|-1-1--1-1--8-----------------|
C|-3-3--3-3-1-3--3-3------6-6-|-1-1--1-1--8--0-0-0-8p0-6-6--|

D|----------------------------|-----------------------------|
A|----------------------------|--------------4-4-4-4/6-6-6\-|
F|--------------------5-5-----|--------------6-6-6-6/8-8-8\-|
C|-3-3--3-3-1-3--3-3--5-5-6-6-|-1-1--1-1--8--6-6-6-6/8-8-8\-|
G|-3-3--3-3-1-3--3-3--3-3-6-6-|-1-1--1-1--8--4-4-4-4/6-6-6\-|
C|-3-3--3-3-1-3--3-3------6-6-|-1-1--1-1--8-----------------|


OUTRO:
D|---------------------------|
A|---------------------------|
F|---------------------------|
C|-1-3--3-3-1-3--1-3--3-1--3-| 3x
G|-1-3--3-3-1-3--1-3--3-1--3-|
C|-1-3--3-3-1-3--1-3--3-1--3-|
PM .             .

D|-----------------|
A|-----------------|
F|-----------------|
C|-1-3--3-3-1-3----|
G|-1-3--3-3-1-3----|
C|-1-3--3-3-1-3----|
PM .

END W00T!!....
comments
print report bad tab
5 comments total. Showing first comments.
0 reply
SomeGuitarPlayr wrote on March 12 2006, 09:10 pm

Holy crap i just submitted one and this happened to be the only one i didn't look at (because it didn't have a rating yet =P)... nearly everything in mine sounds wrong compared to this one rofl... the only thing i think i did better was the bridge... the bridge sounds like its missing stuff... my bridge went like this, lemme know what you think:

d|-------------------------------------------------------------------
A|-------------------------------------------------------------------
F|-------------------------------------------------------------------
C|-------------------------------------------------------------------
G|-------------------------------------------------------------------
C|-1h3--3-3-1h3--1h3-3-1--3-1h3--3-3-1h3--1h3-3-1--------------------
.....................................






d|-------------------------| |------------------------------------
A|-------------------------| |------------------------------------
F|-------------------------| |------------------------------------
C|-1h3--3-3-1h3--1h3-3-3---|(x5)|-1h3--3-3-1h3-1h3-3-3-3-3-3-3-------
G|-1h3--3-3-1h3--1h3-3-3---| |-1h3--3-3-1h3-1h3-3-3-3-3-3-3-------
C|-1h3--3-3-1h3--1h3-3-3---| |-1h3--3-3-1h3-1h3-3-3-3-3-3-3-------
... ... ...

d|-------------------------------------------------------------------
A|-------------------------------------------------------------------
F|-------8-------8----------------------8-------8---------6-5--------
C|-6--5-6---6-5-6---6-5-8-8-8-8-6-5-6-5---6-5-6---6-5-6-5------------
G|-------------------------------------------------------------------
C|-------------------------------------------------------------------

d|-------------------------| |------------------------------------
A|-------------------------| |------------------------------------
F|-------------------------| |------------------------------------
C|-1h3--3-3-1h3--1h3-3-3---|(x2)|-1h3--3-3-1h3-1h3-3-3-3-3-3-3-------
G|-1h3--3-3-1h3--1h3-3-3---| |-1h3--3-3-1h3-1h3-3-3-3-3-3-3-------
C|-1h3--3-3-1h3--1h3-3-3---| |-1h3--3-3-1h3-1h3-3-3-3-3-3-3-------
... ... ...

d|-------------------------------------------------------------------
A|-------------------------------------------------------------------
F|-------8-------8----------------------8-------8---------6-5--------
C|-6--5-6---6-5-6---6-5-8-8-8-8-6-5-6-5---6-5-6---6-5-6-5------------
G|-------------------------------------------------------------------
C|-------------------------------------------------------------------

d|-------------------------| |------------------------------------
A|-------------------------| |------------------------------------
F|-------------------------| |------------------------------------
C|-1h3--3-3-1h3--1h3-3-3---|(x2)|-1h3--3-3-1h3-1h3-3-3-3-3-3-3-------
G|-1h3--3-3-1h3--1h3-3-3---| |-1h3--3-3-1h3-1h3-3-3-3-3-3-3-------
C|-1h3--3-3-1h3--1h3-3-3---| |-1h3--3-3-1h3-1h3-3-3-3-3-3-3-------
... ... ...

d|-------------------------------------------------------------------
A|-------------------------------------------------------------------
F|-------8-------8----------------------8-------8-----5-5-5-5--------
C|-6--5-6---6-5-6---6-5-8-8-8-8-6-5-6-5---6-5-6---6-5----------------
G|-------------------------------------------------------------------
C|-------------------------------------------------------------------

d|-------------------------------------------------------------------
A|-------------------------------------------------------------------
F|-------8-------8---------------------------------------------------
C|-6--5-6---6-5-6---6-5-8-8-8-8--------------------------------------
G|-------------------------------------------------------------------
C|-------------------------------------------------------------------

The hammer-ons and stuff sound wrong now that i played the begining part your way, but the rest sounds right to me... Anyway nice tab =)!

~SomeGuitarPlyr~

0 reply
SomeGuitarPlayr wrote on March 12 2006, 09:12 pm

when i say the rest i mean the lead stuff like

d|-------------------------------------------------------------------
A|-------------------------------------------------------------------
F|-------8-------8----------------------8-------8---------6-5--------
C|-6--5-6---6-5-6---6-5-8-8-8-8-6-5-6-5---6-5-6---6-5-6-5------------
G|-------------------------------------------------------------------
C|-------------------------------------------------------------------

0 reply
flipf wrote on December 6 2006, 08:19 pm

WOOT! WOOT! WOOT!

I want to post or [tab]
guest
You may want to rate the tab now too:
select rating
Please do not post tabs as comments. Select "correction" instead!