Oops, an error
Loading. Please wait.

For The Love Of The Game Tab

ver2
ver2

Intro

Whole song

Interactive

More versions @911Tabs.com
3,200 views 3 this week
1 commentread comment
1 2 3 4 5
excellent!
x 2
Autoscroll
+/-
esc
set tempo
stop
Contributor
Hey! There's an official Ultimate Guitar app which is ideal
for learning songs when you're away from computer. Get the app
WARNING: You are trying to view
                                    content from Ultimate-Guitar.com
                                    in an unauthorized application,
                                    which is prohibited.

                                    Please use an official Ultimate
                                    Guitar Tabs application for iPhone,
                                    iPad or Android to access legitimate
                                    chords, guitar, bass, and drum tabs
                                    from Ultimate-Guitar.com database.

                                    Type "ultimate guitar tabs" in Apple
                                    App Store's or Android Market's
                                    search to find the application.
Band: Pillar
Song: For the Love of the Game
Tuning: Drop ā€œCā€


Intro:
D[----------------|----------------|----------------|----------------]
A[----------------|----------------|----------------|----------------]
F[----------------|----------------|----------------|----------------]
C[----------------|----------------|----------------|----------------]
G[--------5---5-3-|0---------3-----|--------5---5-3-|0---------3-----]
C[x-0---0---------|--3---3-3-----3^|--0---0---------|--3---3-3-----3-]

D[----------------|----------------|----------------|----------------]
A[----------------|----------------|----------------|----------------]
F[----------------|----------------|----------------|----------------]
C[----------------|----------------|----------------|----------------]
G[--------5---5-3-|0---------3-----|--------5---5-3-|0---------------]
C[5-0---0---------|--3---3-3-----3^|--0---0---------|--3---0-3-5-5br-]


Verse 1:
D[----------------|----------------|----------------|----------------]
A[----------------|----------------|----------------|----------------]
F[----------------|----------------|----------------|----------------]
C[----------------|----------------|----------------|----------------]
G[----------------|----------------|----------------|----------------]
C[3-0---0---------|x-0---0---------|x-0---0---------|x-3---0-3-5-5br-]

D[----------------|----------------|----------------|----------------]
A[----------------|----------------|----------------|----------------]
F[----------------|----------------|----------------|----------------]
C[----------------|----------------|----------------|----------------]
G[----------------|----------------|----------------|------------3---]
C[3-0---0---------|x-0---0---------|x-0---0---------|x-3---0-3-5---5-]

D[----------------|----------------|----------------|----------------]
A[----------------|----------------|----------------|----------------]
F[----------------|----------------|----------------|----------------]
C[----------------|----------------|----------------|----------------]
G[----------------|----------------|----------------|----------------]
C[3-0-----x---x---|x-0-----x---x---|x-0-----x---x---|x-3---0-3-5-5br-]

D[----------------|----------------|----------------|----------------]
A[----------------|----------------|----------------|----------------]
F[----------------|----------------|----------------|----------------]
C[----------------|----------------|----------------|----------------]
G[----------------|----------------|----------------|-----------3----]
C[3-0-----x---x---|x-0-----x---x---|x-0-----x---x---|x-3---3-3-----3-]


Pre-Chorus 1:
D[----------------|----------------|----------------|----------------]
A[----------------|----------------|----------------|----------------]
F[--3---3-3-3-3-3-|3-5---5-5-5-5-5-|5-7-------------|----------------]
C[--3---3-3-3-3-3-|3-5---5-5-5-5-5-|5-7-------------|----5-5---------]
G[--1---1-1-1-1-1-|1-3---3-3-3-3-3-|3-5-----8-8-7-7-|8-8-----8-8-7-7-]
C[pm------*-*-----|--------*-*-----|----------------|----------------]

D[----------------|----------------|----------------|----------------]
A[----------------|----------------|----------------|----------------]
F[--3---3-3-3-3-3-|3-5---5-5-5-5-5-|5-7-------------|------------5-5-]
C[--3---3-3-3-3-3-|3-5---5-5-5-5-5-|5-7-------------|----5-5---------]
G[3-1---1-1-1-1-1-|1-3---3-3-3-3-3-|3-5-----8-8-7-7-|8-8-----8-8-----]
C[pm------*-*-----|--------*-*-----|----------------|----------------]

D[----------------|----------------|----------------|----------------]
A[----------------|----------------|----------------|----------------]
F[--3---3-3-3-3-3-|3-5---5-5-5-5-5-|5-7---7-7-7-7-7-|7-10--1010101010]
C[7-3---3-3-3-3-3-|3-5---5-5-5-5-5-|5-7---7-7-7-7-7-|7-10--1010101010]
G[--1---1-1-1-1-1-|1-3---3-3-3-3-3-|3-5---5-5-5-5-5-|5-8---8-8-8-8-8-]
C[pm------*-*-----|--------*-*-----|----------------|----------------]

D[----------------|----------------|
A[----------------|----------------|
F[10--------------|----------------|
C[108---8-8-8-8-8-|8-10----------0-|
G[8-8---8-8-8-8-8-|8-10----------0-|
C[--8---8-8-8-8-8-|8-10----------0-|


Chorus 1: There's some riffage during the choruses that I can't figure it out, so this 
all you get.
D[----------------|----------------|----------------|----------------]
A[----------------|----------------|----------------|----------------]
F[----------------|----------------|----------------|----------------]
C[--0-0-0-0-0-0-0-|--0-0-0-0-0-0-5-|--5-5-5-5-5-5-5-|--5-5-5-5-5-5-10]
G[--0-0-0-0-0-0-0-|--0-0-0-0-0-0-3-|--3-3-3-3-3-3-3-|--3-3-3-3-3-3-8-]
C[--0-0-0-0-0-0-0-|--0-0-0-0-0-0-3-|--3-3-3-3-3-3-3-|--3-3-3-3-3-3-8-]

D[----------------|----------------|----------------|----------------]
A[----------------|----------------|----------------|----------------]
F[----------------|----------------|----------------|----------------]
C[--10101010101010|--1010101010108-|--8-8-8-8-8-8-8-|--8-8-8-8-8-8-0-]
G[--8-8-8-8-8-8-8-|--8-8-8-8-8-8-5-|--5-5-5-5-5-5-5-|--5-5-5-5-5-5-0-]
C[--8-8-8-8-8-8-8-|--8-8-8-8-8-8-5-|--5-5-5-5-5-5-5-|--5-5-5-5-5-5-0-]

D[----------------|----------------|----------------|----------------]
A[----------------|----------------|----------------|----------------]
F[----------------|----------------|----------------|----------------]
C[--0-0-0-0-0-0-0-|--0-0-0-0-0-0-5-|--5-5-5-5-5-5-5-|--5-5-5-5-5-5-10]
G[--0-0-0-0-0-0-0-|--0-0-0-0-0-0-3-|--3-3-3-3-3-3-3-|--3-3-3-3-3-3-7-]
C[--0-0-0-0-0-0-0-|--0-0-0-0-0-0-3-|--3-3-3-3-3-3-3-|--3-3-3-3-3-3-7-]

D[----------------|----------------|----------------|----------------]
A[----------------|----------------|----------------|----------------]
F[----------------|----------------|----------------|----------------]
C[--10101010101010|--10101010101010|--10101010101010|--10101010101010]
G[--7-7-7-7-7-7-7-|--7-7-7-7-7-7-8-|--8-8-8-8-8-8-10|--10101010101010]
C[--7-7-7-7-7-7-7-|--7-7-7-7-7-7-8-|--8-8-8-8-8-8-10|--10101010101010]


Fill 1:
D[----------------|----------------|----------------|----------------]
A[----------------|----------------|----------------|----------------]
F[----------------|----------------|----------------|----------------]
C[10--------------|----------------|----------------|----------------]
G[10------5---5-3-|0---------3-----|--------5---5-3-|0---------3-----]
C[100---0---------|--3---3-3-----3^|--0---0---------|--3---3-3-----3-]

D[----------------|----------------|----------------|----------------]
A[----------------|----------------|----------------|----------------]
F[----------------|----------------|----------------|----------------]
C[----------------|----------------|----------------|----------------]
G[--------5---5-3-|0---------3-----|--------5---5-3-|0---------------]
C[5-0---0---------|--3---3-3-----3^|--0---0---------|--6^slow bend---]


Verse 2:
D[----------------|----------------|----------------|----------------]
A[----------------|----------------|----------------|----------------]
F[----------------|----------------|----------------|----------------]
C[----------------|----------------|----------------|----------------]
G[----------------|----------------|----------------|----------------]
C[--0---0---------|x-0---0---------|x-0---0---------|x-3---0-3-5-5br-]

D[----------------|----------------|----------------|----------------]
A[----------------|----------------|----------------|----------------]
F[----------------|----------------|----------------|----------------]
C[----------------|----------------|----------------|----------------]
G[----------------|----------------|----------------|------------3---]
C[3-0---0---------|x-0---0---------|x-0---0---------|x-3---0-3-5---5-]

D[----------------|----------------|----------------|----------------]
A[----------------|----------------|----------------|----------------]
F[----------------|----------------|----------------|----------------]
C[----------------|----------------|----------------|----------------]
G[----------------|----------------|----------------|----------------]
C[3-0-----x---x---|x-0-----x---x---|x-0-----x---x---|x-3---0-3-5-5br-]

D[----------------|----------------|----------------|----------------]
A[----------------|----------------|----------------|----------------]
F[----------------|----------------|----------------|----------------]
C[----------------|----------------|----------------|----------------]
G[----------------|----------------|----------------|------------3-3-]
C[3-0-----x--(2.3)|--0---0---x-x-x-|x-0---0-12\\0---|0-3---3-3-3-----]
pm                                                   *       * *
(2.3) Harmonic 1/3 the way past the second fret.


Pre-Chorus 2:
D[----------------|----------------|----------------|----------------]
A[----------------|----------------|----------------|----------------]
F[--3---3-3-3-3-3-|3-5---5-5-5-5-5-|5-7-------------|----------------]
C[--3---3-3-3-3-3-|3-5---5-5-5-5-5-|5-7-------------|----5-5---------]
G[--1---1-1-1-1-1-|1-3---3-3-3-3-3-|3-5-----8-8-7-7-|8-8-----8-8-7-7-]
C[3----pm-*-*-----|--------*-*-----|----------------|----------------]

D[----------------|----------------|----------------|----------------]
A[----------------|----------------|----------------|----------------]
F[--3---3-3-3-3-3-|3-5---5-5-5-5-5-|5-7-------------|------------5-5-]
C[--3---3-3-3-3-3-|3-5---5-5-5-5-5-|5-7-------------|----5-5---------]
G[3-1---1-1-1-1-1-|1-3---3-3-3-3-3-|3-5-----8-8-7-7-|8-8-----8-8-----]
C[pm------*-*-----|--------*-*-----|----------------|----------------]

D[----------------|----------------|----------------|----------------]
A[----------------|----------------|----------------|----------------]
F[--3---3-3-3-3-3-|3-5---5-5-5-5-5-|5-7---7-7-7-7-7-|7-10--1010101010]
C[7-3---3-3-3-3-3-|3-5---5-5-5-5-5-|5-7---7-7-7-7-7-|7-10--1010101010]
G[--1---1-1-1-1-1-|1-3---3-3-3-3-3-|3-5---5-5-5-5-5-|5-8---8-8-8-8-8-]
C[pm------*-*-----|--------*-*-----|----------------|----------------]

D[----------------|----------------|
A[----------------|----------------|
F[10--------------|----------------|
C[108---8-8-8-8-8-|8-10\\\\\\\\\\0-|
G[8-8---8-8-8-8-8-|8-10\\\\\\\\\\0-|
C[--8---8-8-8-8-8-|8-10\\\\\\\\\\0-|


Chorus 2:
D[----------------|----------------|----------------|----------------]
A[----------------|----------------|----------------|----------------]
F[----------------|----------------|----------------|----------------]
C[--0-0-0-0-0-0-0-|--0-0-0-0-0-0-5-|--5-5-5-5-5-5-5-|--5-5-5-5-5-5-10]
G[--0-0-0-0-0-0-0-|--0-0-0-0-0-0-3-|--3-3-3-3-3-3-3-|--3-3-3-3-3-3-8-]
C[--0-0-0-0-0-0-0-|--0-0-0-0-0-0-3-|--3-3-3-3-3-3-3-|--3-3-3-3-3-3-8-]

D[----------------|----------------|----------------|----------------]
A[----------------|----------------|----------------|----------------]
F[----------------|----------------|----------------|----------------]
C[--10101010101010|--1010101010108-|--8-8-8-8-8-8-8-|--8-8-8-8-8-8-0-]
G[--8-8-8-8-8-8-8-|--8-8-8-8-8-8-5-|--5-5-5-5-5-5-5-|--5-5-5-5-5-5-0-]
C[--8-8-8-8-8-8-8-|--8-8-8-8-8-8-5-|--5-5-5-5-5-5-5-|--5-5-5-5-5-5-0-]

D[----------------|----------------|----------------|----------------]
A[----------------|----------------|----------------|----------------]
F[----------------|----------------|----------------|----------------]
C[--0-0-0-0-0-0-0-|--0-0-0-0-0-0-5-|--5-5-5-5-5-5-5-|--5-5-5-5-5-5-10]
G[--0-0-0-0-0-0-0-|--0-0-0-0-0-0-3-|--3-3-3-3-3-3-3-|--3-3-3-3-3-3-7-]
C[--0-0-0-0-0-0-0-|--0-0-0-0-0-0-3-|--3-3-3-3-3-3-3-|--3-3-3-3-3-3-7-]

D[----------------|----------------|----------------|----------------]
A[----------------|----------------|----------------|----------------]
F[----------------|----------------|----------------|----------------]
C[--10101010101010|--10101010101010|-10101010101010-|--10101010101010]
G[--7-7-7-7-7-7-7-|--7-7-7-7-7-7-8-|-8-8-8-8-8-8-10-|--10101010101010]
C[--7-7-7-7-7-7-7-|--7-7-7-7-7-7-8-|-8-8-8-8-8-8-10-|--10101010101010]


Fill 2:
D[----------------|----------------]
A[----------------|----------------]
F[----------------|----------------]
C[----------------|----------------]
A[----------------|----------------]
C[----------------|----------------]


Bridge: This is kind of self explanatory, but if you're like me you miss these things somtimes.
After the first two bars, the things are connected and the top part is lead and the 
is rythym.
D[----------------|----------------|----------------|----------------]
A[----------------|----------------|----------------|----------------]
F[----------------|----------------|----------------|----------------]
C[----------------|----------------|----------------|----5-------7---]
A[5---------------|--5-----------5-|----------------|----------------]
C[--3-0---3---0---|----3-0-3---0---|--3-0---3---0---|--3---3-5-5---5-]

D[----------------|----------------|----------------|----------------]
A[----------------|----------------|----------------|----------------]
F[----------------|----------------|----------------|----------------]
C[----------------|----------------|----------------|----5-------3---]
A[5---------------|--5-----------5-|----------------|----------------]
C[--3-0---3---0---|----3-0-3---0---|--3-0---3---0---|--3---3-0-0---0-]

D[----------------|----------------|16tr~~~~~~~~~~~~|~~~~~~~~~~~~~~~~]
A[13tr~~~~~~~~~~~~|~~~~~~~~~~~~~~~~|----------------|----------------]
F[----------------|----------------|----------------|----------------]
C[----------------|----------------|----------------|----------------]
A[----------------|----------------|----------------|----------------]
C[----------------|----------------|----------------|----------------]
 |                                                                   |
D[----------------|----------------|----------------|----------------]
A[----------------|----------------|----------------|----------------]
F[----------------|----------------|----------------|----------------]
C[----------------|----------------|----------------|----5-------7---]
A[5---------------|--5-----------5-|----------------|----------------]
C[--3-0---3---0---|----3-0-3---0---|--3-0---3---0---|--3---3-5-5---5-]

D[15tr~~~~~~~~~~~~|~~~~~~~~~~~~~~~~|17tr~~~~~~~~~~~~|~~~~~~~~~~~~~~~~]
A[----------------|----------------|----------------|----------------]
F[----------------|----------------|----------------|----------------]
C[----------------|----------------|----------------|----------------]
A[----------------|----------------|----------------|----------------]
C[----------------|----------------|----------------|----------------]
 |                                                                   |
D[----------------|----------------|----------------|----------------]
A[----------------|----------------|----------------|----------------]
F[----------------|----------------|----------------|----------------]
C[----------------|----------------|----------------|----5-------3---]
A[5---------------|--5-----------5-|----------------|----------------]
C[--3-0---3---0---|----3-0-3---0---|--3-0---3---0---|--3---3-0-0---0-]

D[18tr~~~~~~~~~~~~|20tr~~~~~~~~~~~~|22tr~~~~~~~~~~~~|~~~~~~~~~~~~~~~~]
A[----------------|----------------|----------------|----------------]
F[----------------|----------------|----------------|----------------]
C[----------------|----------------|----------------|----------------]
A[----------------|----------------|----------------|----------------]
C[----------------|----------------|----------------|----------------]
 |                                                                   |
D[----------------|----------------|----------------|----------------]
A[----------------|----------------|----------------|----------------]
F[----------------|----------------|----------------|----------------]
C[7-7-7-7-7-7-7-7-|1010101010101010|1010101010101010|10101010101010\\]
A[5-5-5-5-5-5-5-5-|7-7-7-7-7-7-7-7-|8-8-8-8-8-8-8-8-|10101010101010\\]
C[5-5-5-5-5-5-5-5-|7-7-7-7-7-7-7-7-|8-8-8-8-8-8-8-8-|10101010101010\\]

D[----------------|----------------|----------------|----------------]
A[----------------|----------------|----------------|----------------]
F[----------------|----------------|--7-------------|----------------]
C[\\\\\\\\--------|------------12\\|0-7-------------|----5-5---------]
G[\\\\\\\\--------|------------12\\|0-5-----8-8-7-7-|8-8-----8-8-7-7-]
C[\\\\\\\\--------|------------12\\|0---------------|----------------]

D[----------------|----------------|----------------|----------------]
A[----------------|----------------|----------------|----------------]
F[--3---3-3-3-3-3-|3-5---5-5-5-5-5-|5-7-------------|------------5-5-]
C[--3---3-3-3-3-3-|3-5---5-5-5-5-5-|5-7-------------|----5-5---------]
G[3-1---1-1-1-1-1-|1-3---3-3-3-3-3-|3-5-----8-8-7-7-|8-8-----8-8-----]
C[----------------|----------------|----------------|----------------]

D[----------------|----------------|----------------|----------------]
A[----------------|----------------|----------------|----------------]
F[--3---3-3-3-3-3-|3-5---5-5-5-5-5-|5-7---7-7-7-7-7-|7-10--1010101010]
C[7-3---3-3-3-3-3-|3-5---5-5-5-5-5-|5-7---7-7-7-7-7-|7-10--1010101010]
G[--1---1-1-1-1-1-|1-3---3-3-3-3-3-|3-5---5-5-5-5-5-|5-8---8-8-8-8-8-]
C[----------------|----------------|----------------|----------------]

D[----------------|----------------|
A[----------------|----------------|
F[10--------------|----------------|
C[108---8-8-8-8-8-|8-10\\\\\\\\\\0-|
G[8-8---8-8-8-8-8-|8-10\\\\\\\\\\0-|
C[--8---8-8-8-8-8-|8-10\\\\\\\\\\0-|

repeat Chorus 2

D[----------------|----------------|----------------|----------------]
A[----------------|----------------|----------------|----------------]
F[----------------|----------------|----------------|----------------]
C[----------------|----------------|----------------|----5-------7---]
A[5---------------|--5-----------5-|----------------|----------------]
C[--3-0---3---0---|----3-0-3---0---|--3-0---3---0---|--3---3-5-5---5-]

D[----------------|----------------|----------------|
A[----------------|----------------|----------------|
F[----------------|----------------|----------------|
C[----------------|----------------|----------------|
A[5---------------|--5-----------5-|----------------|
C[--3-0---3---0---|----3-0-3---0---|--3-0---3---0---|  End.

Legend:
b: bend    All the bends are half step
r: release
^: slight bend
x: kill the note
*: palm mute
\:  slide down
tr~: tremelo
()parentheses: harmonic
comments
We did not receive enough feedback on this tab! Please rate:
print report bad tab
1 2 3 4 5
1 comment total.
0 reply
KoTa04 wrote on September 2 2013, 12:52 pm

Not quite perfect, but it's the best tab I could find. *****

I want to post or [tab]
guest
You may want to rate the tab now too:
select rating
Please do not post tabs as comments. Select "correction" instead!