Oops, an error
Loading. Please wait.

Talk To The Moon Bass Tab

ver1
ver1

Whole song

Interactive

More versions @911Tabs.com
102 views 1 this week
no commentswrite comment
1 2 3 4 5
please rate
Autoscroll
+/-
esc
set tempo
stop
Contributor
Difficulty
Tuning
intermediate
D# G# C# F# A# D#
WARNING: You are trying to view
                                    content from Ultimate-Guitar.com
                                    in an unauthorized application,
                                    which is prohibited.

                                    Please use an official Ultimate
                                    Guitar Tabs application for iPhone,
                                    iPad or Android to access legitimate
                                    chords, guitar, bass, and drum tabs
                                    from Ultimate-Guitar.com database.

                                    Type "ultimate guitar tabs" in Apple
                                    App Store's or Android Market's
                                    search to find the application.
-----------------------------------------------------------------------------
		   Talk To The Moon - Pink Cream 69 (BASS)
                       
-----------------------------------------------------------------------------
Tabbed by: Scotto10

Tuning: Half Step Down

=============================================================================

Bass

                              


                                                      E  E  E  E  E  E  E  E   
F#||-----------|-----------|-----------|-----------|--------------------------|
C#||-----------|-----------|-----------|-----------|--------------------------|
G#||-----------|-----------|-----------|-----------|--------------------------|
C#||-----------|-----------|-----------|-----------|--0--0--0--0--0--0--0--0--|


  E  E  E  E  E  E  E  E     E  E  E  E  E  E  E  E   
--------------------------|--------------------------|
--------------------------|--------------------------|
--------------------------|--------------------------|
--0--0--0--0--0--0--0--0--|--0--0--0--0--0--0--0--0--|


  E  E  E  E  E  E  E  E     E  E  E  E  E  E  E  E   
--------------------------|--------------------------|
--------------------------|--------------------------|
-----------------1-----3--|--------------------------|
--0--0--0--0--0-----0-----|--0--0--0--0--0--0--0--0--|


  E  E  E  E  E  E  E  E     E  E  E  E  E  E  E  E   
--------------------------|--------------------------|
--------------------------|--------------------------|
--------------------------|--------------------------|
--0--0--0--0--0--0--0--0--|--0--0--0--0--0--0--0--0--|


  E  E  E  E  E  E  E  E     E  E  E  E  E  E  E  E   
--------------------------|--------------------------|
--------------------------|--------------------------|
-----------------1-----3--|--------------------------|
--0--0--0--0--0-----0-----|--0--0--0--0--0--0--0--0--|


  E  E  E  E  E  E  E  E     E  E  E  E  E  E  E  E   
--------------------------|--------------------------|
--------------------------|--------------------------|
--------------------------|--------------------------|
--0--0--0--0--0--0--0--0--|--0--0--0--0--0--0--0--0--|


  E  E  E  E  E  E  E  E     E  E  E  E  E  E  E  E   
--------------------------|--------------------------|
--------------------------|--------------------------|
--------------------------|--------------3--3--3-----|
--0--0--0--0--0--0--0--0--|--0--0--0--0-----------0--|


  E  S S E  E  S S S E  S E     E  S S E  S S E  S S E  E   
-----------------------------|-----------------------------|
-----------------------------|-----------------------------|
--5--5-5-5--3--5-------------|--1--1-1-1--3-3-3--3-3-3-----|
-----------------0---0----0--|--------------------------0--|


  E  S S E  E  S S S E  S E     E  S S E  S S E  S S E  E   
-----------------------------|-----------------------------|
-----------------------------|-----------------------------|
--5--5-5-5--3--5-------------|--1--1-1-1--3-3-3--3-3-3-----|
-----------------0---0----0--|--------------------------0--|


  E  S S E  E  S S S E  S E     E  S S E  S S E  S S E  E   
-----------------------------|-----------------------------|
-----------------------------|-----------------------------|
--5--5-5-5--3--5-------------|--1--1-1-1--3-3-3--3-3-3-----|
-----------------0---0----0--|--------------------------0--|


  E  S S E  E  S S S E  S E     E  S S E  S S E  S S E  E   
-----------------------------|-----------------------------|
-----------------------------|-----------------------------|
--5--5-5-5--3--5-------------|--1--1-1-1--3-3-3--3-3-3-----|
-----------------0---0----0--|--------------------------0--|


  E  E  E  E  E  E  E  E     E  E  E  E  E  E  E  E   
--------------------------|--------------------------|
--------------------------|--------------------------|
--0--0--0--0--0--0--0--1--|--1--1--1--------------0--|
--------------------------|-----------5--5--5--5-----|


  E  E  E  E  E  E  E  E     E  E  E  E  E  E  E  E   
--------------------------|--------3-----------------|
--------------------------|-----3--------------------|
--0--0--0--0--0--0--0--1--|--1--------3--3--3--3-----|
--------------------------|--------------------------|


  E  E  E  E  E  E  E  E     E  E  E  E  E  E  E  E   
--------------------------|--------------------------|
--------------------------|--------------------------|
--------------------------|--------------------------|
--0--0--0--0--0--0--0--0--|--0--0--0--0--0--0--0--0--|


  E  E  E  E  E  E  E  E     E  E  E  E  E  E  E  E   
--------------------------|--------------------------|
--------------------------|--------------------------|
--------------------------|-----------------1-----3--|
--0--0--0--0--0--0--0--0--|--0--0--0--0--0-----0-----|


  E  E  E  E  E  E  E  E     E  E  E  E  E  E  E  E   
--------------------------|--------------------------|
--------------------------|--------------------------|
--------------------------|--------------------------|
--0--0--0--0--0--0--0--0--|--0--0--0--0--0--0--0--0--|


  E  E  E  E  E  E  E  E     E  E  E  E  E  E  E  E   
--------------------------|--------------------------|
--------------------------|--------------------------|
--------------------------|--------------------------|
--0--0--0--0--0--0--0--0--|--0--0--0--0--0--0--0--0--|


  E  E  E  E  E  E  E  E     E  S S E  E  S S S E  S E   
--------------------------|-----------------------------|
--------------------------|-----------------------------|
--------------3--3--3-----|--5--5-5-5--3--5-------------|
--0--0--0--0-----------0--|-----------------0---0----0--|


  E  S S E  S S E  S S E  E     E  S S E  E  S S S E  S E   
-----------------------------|-----------------------------|
-----------------------------|-----------------------------|
--1--1-1-1--3-3-3--3-3-3-----|--5--5-5-5--3--5-------------|
--------------------------0--|-----------------0---0----0--|


  E  S S E  S S E  S S E  E     E  S S E  E  S S S E  S E   
-----------------------------|-----------------------------|
-----------------------------|-----------------------------|
--1--1-1-1--3-3-3--3-3-3-----|--5--5-5-5--3--5-------------|
--------------------------0--|-----------------0---0----0--|


  E  S S E  S S E  S S E  E     E  S S E  E  S S S E  S E   
-----------------------------|-----------------------------|
-----------------------------|-----------------------------|
--1--1-1-1--3-3-3--3-3-3-----|--5--5-5-5--3--5-------------|
--------------------------0--|-----------------0---0----0--|


  E  S S E  S S E  S S E  E     E  E  E  E  E  E  E  E   
-----------------------------|--------------------------|
-----------------------------|--------------------------|
--1--1-1-1--3-3-3--3-3-3-----|--0--0--0--0--0--0--0--1--|
--------------------------0--|--------------------------|


  E  E  E  E  E  E  E  E     E  E  S  S Q    E  E  E   
--------------------------|---------------------------|
--------------------------|-------------2-------------|
--1--1--1--------------0--|--0--0--2S-3------0--0--1--|
-----------5--5--5--5-----|---------------------------|


  E  E  E  E  E  E  E  E     E  E  E  E  E  E  E  E   
--------------------------|--------------------------|
--------------------------|--------------------------|
--1--1--1--3--3--3--3-----|--------------------------|
--------------------------|--0--0--0--0--0--0--0--0--|


  E  E  E  E  E  E  E  E     E  E  E  E  E  E  E  E   
--------------------------|--------------------------|
--------------------------|--------------------------|
--------------------------|--------------------------|
--0--0--0--0--0--0--0--0--|--0--0--0--0--0--0--0--0--|


  E  E  E  E  E  E  E  E     E  E  E  E  E  E  E  E   
--------------------------|--------------------------|
--------------------------|--------------------------|
-----------------1-----3--|--------------------------|
--0--0--0--0--0-----0-----|--0--0--0--0--0--0--0--0--|


  E  E  E  E  E  E  E  E     E  E  E  E  E  E  E  E   
--------------------------|--------------------------|
--------------------------|--------------------------|
--------------------------|--------------------------|
--0--0--0--0--0--0--0--0--|--0--0--0--0--0--0--0--0--|


  E  E  E  E  E  E  E  E     E  E  E  E  E  E  E  E   
--------------------------|--------------------------|
--------------------------|--------------------------|
--------------------------|--3--3--3--3--3--3--3-----|
--0--0--0--0--0--0--0--0--|-----------------------0--|


  E  E  E  E    S  S  S  S  S  S  E      E.  S E.  S E.  S E  E   
--------------------------------------|--------------------------|
--------------------------------------|--------------------------|
--1--1--1--1S--13-13-13-13-13-13-13\--|--0---0-0---0-0---0-3--3--|
--------------------------------------|--------------------------|


  E.  S E.  S E.  S E  E     E.  S E.  S E.  S E  E   
--------------------------|--------------------------|
--------------------------|--------------------------|
--0---0-0---0-0---0-5--3--|--0---0-0---0-0---0-3--3--|
--------------------------|--------------------------|


  E.  S E.  S E.  S E.  S    E.  S E.  S E.  S E  E   
--------------------------|--------------------------|
--------------------------|--------------------------|
--0---0-0---0-0---0-0---0-|--0---0-0---0-0---0-3--3--|
--------------------------|--------------------------|


  E.  S E.  S E.  S E.  S    E.  S E.  S E.  S E  E   
--------------------------|--------------------------|
--------------------------|--------------------------|
--0---0-0---0-0---0-0---0-|--0---0-0---0-0---0-3--3--|
--------------------------|--------------------------|


  E.  S E.  S E.  S E.  S    E  E  E  E  E  E  E  E   
--------------------------|--------------------------|
--------------------------|--------------------------|
--0---0-0---0-0---0-0---0-|--------------------------|
--------------------------|--0--0--0--0--0--0--0--0--|


  E  E  E  E  E  E  E  E     E  E  E  E  E  E  E  E   
--------------------------|--------------------------|
--------------------------|--------------------------|
--------------------------|--------------------------|
--0--0--0--0--0--0--0--0--|--0--0--0--0--0--0--0--0--|


  E  E  E  E  E  E  E  E     E  E  E  E  E  E  E  E   
--------------------------|--------------------------|
--------------------------|--------------------------|
--------------------------|--------------------------|
--0--0--0--0--0--0--0--0--|--0--0--0--0--0--0--0--0--|


  E  E  E  E  E  E  E  E     E  E  E  E  E  E  E  E   
--------------------------|--------------------------|
--------------------------|--------------------------|
--------------------------|--------------------------|
--0--0--0--0--0--0--0--0--|--0--0--0--0--0--0--0--0--|


  E  E  E  E  E  E  E  E     E  E  E  E  E  E  E  E   
--------------------------|--------------------------|
--------------------------|--------------------------|
--------------------------|--0--0--0--0--0--0--0--1--|
--0--0--0--0--0--0--0--0--|--------------------------|


  E  E  E  E  E  E  E  E     E  E  E  S   E  S   E  S    E  S  
--------------------------|-----------------------------------|
--------------------------|-----------------------------------|
--1--1--1-----------------|--0-----0--0s-/4--4s-/7--7s-/10----|
-----------5--5--5--5--5--|-----5-----------------------------|


  Q     E  E  Q     E  E     Q.     E  H                         
--------------------------|---------------------|---------------|
--------------------------|---------------------|---------------|
--1----/5--1--3----/7--3--|---------------------|---------------|
--------------------------|--0------0-----------|---------------|


---------------|---------------|---------------|---------------|---------------|
---------------|---------------|---------------|---------------|---------------|
---------------|---------------|---------------|---------------|---------------|
---------------|---------------|---------------|---------------|---------------|


                  E  E  E  E  E  E  E  E     E  E  E  E  E  E  E  E   
---------------|--------------------------|--------------------------|
---------------|--------------------------|--------------------------|
---------------|--------------------------|--------------------------|
---------------|--0--0--0--0--0--0--0--0--|--0--0--0--0--0--0--0--0--|


  E  E  E  E  E  E  E  E     E  E  E  E  E  E  E  E   
--------------------------|--------------------------|
--------------------------|--------------------------|
--------------------------|-----------------1-----3--|
--0--0--0--0--0--0--0--0--|--0--0--0--0--0-----0-----|


  E  E  E  E  E  E  E  E     E  E  E  E  E  E  E  E   
--------------------------|--------------------------|
--------------------------|--------------------------|
--------------------------|--------------------------|
--0--0--0--0--0--0--0--0--|--0--0--0--0--0--0--0--0--|


  E  E  E  E  E  E  E  E     E  E  E  E  E  E  E  E   
--------------------------|--------------------------|
--------------------------|--------------------------|
--------------------------|--------------------------|
--0--0--0--0--0--0--0--0--|--0--0--0--0--0--0--0--0--|


  E  E  E  E  E  E  E  E     E  E  E  E  E  E  E  E   
--------------------------|--------------------------|
--------------------------|--------------------------|
--------------------------|--------------------------|
--0--0--0--0--0--0--0--0--|--0--0--0--0--0--0--0--0--|


  E  E  E  E  E  E  E  E     E  E  E  E  E  E  E  E   
--------------------------|--------------------------|
--------------------------|--------------------------|
--------------------------|--------------------------|
--0--0--0--0--0--0--0--0--|--0--0--0--0--0--0--0--0--|


  E  E  E  E  E  E  E  E     E  E  E  E  E  E  E  E   
--------------------------|--------------------------|
--------------------------|--------------------------|
--------------------------|--------------------------|
--0--0--0--0--0--0--0--0--|--0--0--0--0--0--0--0--0--|


  E  E  E  E  E  E  E  E     E  E  E  E  E  E  E  E     H        E  Q    E   
--------------------------|--------------------------|----------------------|
--------------------------|-----------------------3--|-------------------3--|
--------------------------|--------------------------|--3-----------3-------|
--0--0--0--0--0--0--0--0--|--0--0--0--0--0--0--0-----|----------------------|


  W                   W                  
-------------------|-------------------||
-------------------|-------------------||
--1----------------|-------------------||
-------------------|-------------------||




Duration Legend
---------------
W - whole
H - half
Q - quarter
E - 8th
S - 16th
T - 32nd
X - 64th
. - note dotted
|-n-|  - n-tuplets


Tablature Legend
----------------
L - tied note
x - dead note
g - grace note
(n) - ghost note
> - accentuded note
NH - natural harmonic
AH - artificial harmonic
TH - tapped harmonic
SH - semi harmonic
PH - pitch harmonic
h - hammer on
p - pull off
b - bend
br - bendRelease
pb - preBend
pbr - preBendRelease
brb - bendReleaseBend
\n/ - tremolo bar dip
\n - tremolo bar dive
-/n - tremolo bar Release up
/n\ - tremolo bar inverted dip
/n - tremolo bar return
-\n - tremolo bar Release down
S - shift slide
s - legato slide
/ -  slide into from below or out of upwards
\ -  slide into from above or out of downwards
~ - vibrato
W - wide vibrato
tr - trill
TP - tremolo picking
T - tapping
S - slap
P - pop
< - fade in
^ - brush up
v - brush down

comments
We did not receive enough feedback on this tab! Please rate:
print report bad tab
1 2 3 4 5
I want to post or [tab]
guest
You may want to rate the tab now too:
select rating
Please do not post tabs as comments. Select "correction" instead!