Oops, an error
Loading. Please wait.

Talk To The Moon Tab

ver1
ver1

Whole song

Interactive

More versions @911Tabs.com
569 views 3 this week
no commentswrite comment
1 2 3 4 5
please rate
Autoscroll
+/-
esc
set tempo
stop
Contributor
Difficulty
Tuning
intermediate
D# G# C# F# A# D#
Hey! There's an official Ultimate Guitar app which is ideal
for learning songs when you're away from computer. Get the app
WARNING: You are trying to view
                                    content from Ultimate-Guitar.com
                                    in an unauthorized application,
                                    which is prohibited.

                                    Please use an official Ultimate
                                    Guitar Tabs application for iPhone,
                                    iPad or Android to access legitimate
                                    chords, guitar, bass, and drum tabs
                                    from Ultimate-Guitar.com database.

                                    Type "ultimate guitar tabs" in Apple
                                    App Store's or Android Market's
                                    search to find the application.
-----------------------------------------------------------------------------
                   Talk To The Moon - Pink Cream 69 (GUITAR)
                       
-----------------------------------------------------------------------------
Tabbed by: Scotto10

Tuning: Half Step Down

=============================================================================

Guitar

                            

Rhythm 1



      Q.     Q    Q.        Q.     Q    Q.        Q.     Q    Q.      
D#||---------------------|---------------------|---------------------|
A#||--5------3-----------|--6------5-----------|--5------3-----------|
F#||--2------2-----------|--3------3-----------|--2------2-----------|
C#||--0------0-----------|--0------0-----------|--0------0-----------|
G#||---------------------|---------------------|---------------------|
D#||---------------------|---------------------|---------------------|


  Q.     Q    Q.        Q.     Q    E  E  E     Q.     Q    E  E  E   
---------------------|-----------------------|-----------------------|
--6------5-----------|--5------3-------------|--6------5-------------|
--3------3-----------|--2------2-------------|--3------3-------------|
--0------0-----------|--0------0----0--0--0--|--0------0----0--0--0--|
---------------------|-----------------------|-----------------------|
---------------------|-----------------------|-----------------------|


  Q.     Q    E  E  E     Q.     E  S  S E  S S E     Q.     Q    E  E  E   
-----------------------|---------------------------|-----------------------|
--5------3-------------|--6------5-------8------6--|--5------3-------------|
--2------2-------------|--3------3--3s-5-7------5--|--2------2-------------|
--0------0----0--0--0--|--0------0----------0-0----|--0------0----0--0--0--|
-----------------------|---------------------------|-----------------------|
-----------------------|---------------------------|-----------------------|


  Q.     Q    E  E  E     Q.     Q    E  E  E     Q.     E  S  S E  S S E   
-----------------------|-----------------------|---------------------------|
--6------5-------------|--5------3-------------|--6------5-------8----6----|
--3------3-------------|--2------2-------------|--3------3--3s-5-5----5----|
--0------0----0--0--0--|--0------0----0--0--0--|--0------0----------0-0-0--|
-----------------------|-----------------------|---------------------------|
-----------------------|-----------------------|---------------------------|


  Q.     Q    E  E  E     Q.     Q    E  E  E     Q.     Q    E  E  E   
-----------------------|-----------------------|-----------------------|
--5------3-------------|--6------5-------------|--5------3-------------|
--2------2-------------|--3------3-------------|--2------2-------------|
--0------0----0--0--0--|--0------0----0--0--0--|--0------0----0--0--0--|
-----------------------|-----------------------|-----------------------|
-----------------------|-----------------------|-----------------------|


  Q    E  E   E  E  E  E     H.           Q       W                 
--------------------------|--------------------|--0----------------|
--6----5---------8-----6--|--5-----------------|--3----------------|
--3----3---------5-----5--|--5-----------------|--2----------------|
--0----0--5S--7-----0--5--|--5-----------------|--0----------------|
--------------------------|--3-----------------|-------------------|
--------------------------|--------------------|-------------------|


  Q.     E  H           W                   Q.     E  H         
---------------------|--0----------------|---------------------|
--3------1--L--------|--3----------------|--3------1--L--------|
--3------0--L--------|--2----------------|--3------0--L--------|
--3------2--L--------|--0----------------|--3------2--L--------|
---------3--L--------|-------------------|---------3--L--------|
---------------------|-------------------|---------------------|


         |----3----|    3                |----3----|                         
  Q.     Q    Q    Q    E.     Q.     E  Q    Q    Q       W                 
---------0------------------|------------0--------------|--0----------------|
--3-----------3-------------|--3------1-------1---------|--3----------------|
--2----------------2--------|--3------0-----------------|--2----------------|
--0-------------------------|--3------2-----------------|--0----------------|
----------------------------|---------3------------3----|-------------------|
----------------------------|---------------------------|-------------------|


  Q.     E  H           H.           E  E     Q.     H        E   
---------------------|--5------------------|---------------------|
--3------1--L--------|--5---------------3--|--L------------------|
--3------0--L--------|--2---------------3--|--L---------------2--|
--3------2--L--------|--2---------------3--|--L------5--------2--|
---------3--L--------|--0---------------1--|--L------5--------0--|
---------------------|---------------------|---------3-----------|


  H        Q.     E     Q.     Q.     Q       Q.     Q    E  E  E   
--5--------L---------|---------------------|-----------------------|
--5--------L------3--|--L------5-----------|--5------3-------------|
--2--------L------3--|--L------5-----------|--2------2-------------|
--2--------L------3--|--L------5-----------|--0------0----0--0--0--|
--0--------L------1--|--L------3-----------|-----------------------|
---------------------|---------------------|-----------------------|


  Q.     Q    E  E  E     Q.     Q    E  E  E     Q.     E  S  S E  S S E   
-----------------------|-----------------------|---------------------------|
--6------5-------------|--5------3-------------|--6------5-------8------6--|
--3------3-------------|--2------2-------------|--3------3--3s-5-5------5--|
--0------0----0--0--0--|--0------0----0--0--0--|--0------0----------0-0----|
-----------------------|-----------------------|---------------------------|
-----------------------|-----------------------|---------------------------|


  Q.     Q    E  E  E     Q.     Q    E  E  E     Q.     Q    E  E  E   
-----------------------|-----------------------|-----------------------|
--5------3-------------|--6------5-------------|--5------3-------------|
--2------2-------------|--3------3-------------|--2------2-------------|
--0------0----0--0--0--|--0------0----0--0--0--|--0------0----0--0--0--|
-----------------------|-----------------------|-----------------------|
-----------------------|-----------------------|-----------------------|


  Q    E  E   E  E  E  E     H.           Q       W                 
--------------------------|--------------------|--0----------------|
--6----5---------8-----6--|--5-----------------|--3----------------|
--3----3---------5-----5--|--5-----------------|--2----------------|
--0----0--5S--7-----0--5--|--5-----------------|--0----------------|
--------------------------|--3-----------------|-------------------|
--------------------------|--------------------|-------------------|


  Q.     E  H           W                   Q.     E  H         
---------------------|--0----------------|---------------------|
--3------1--L--------|--3----------------|--3------1--L--------|
--3------0--L--------|--2----------------|--3------0--L--------|
--3------2--L--------|--0----------------|--3------2--L--------|
---------3--L--------|-------------------|---------3--L--------|
---------------------|-------------------|---------------------|


         |----3----|    3                |----3----|                         
  Q.     Q    Q    Q    E.     Q.     E  Q    Q    Q       W                 
---------0------------------|------------0--------------|--0----------------|
--3-----------3-------------|--3------1-------1---------|--3----------------|
--2----------------2--------|--3------0-----------------|--2----------------|
--0-------------------------|--3------2-----------------|--0----------------|
----------------------------|---------3------------3----|-------------------|
----------------------------|---------------------------|-------------------|


  Q.     E  H           H.           E  E     Q.     H        E   
---------------------|--5------------------|---------------------|
--3------1--L--------|--5---------------3--|--L------------------|
--3------0--L--------|--2---------------3--|--L---------------2--|
--3------2--L--------|--2---------------3--|--L------5--------2--|
---------3--L--------|--0---------------1--|--L------5--------0--|
---------------------|---------------------|---------3-----------|


  H        Q.     E     Q.     Q.     Q       Q.     Q    E  E  E   
--5--------L---------|---------------------|-----------------------|
--5--------L------3--|--L------5-----------|--5------3-------------|
--2--------L------3--|--L------5-----------|--2------2-------------|
--2--------L------3--|--L------5-----------|--0------0----0--0--0--|
--0--------L------1--|--L------3-----------|-----------------------|
---------------------|---------------------|-----------------------|


  Q.     Q    E  E  E     Q.     Q    E  E  E     Q.     E  S  S E  S S E   
-----------------------|-----------------------|---------------------------|
--6------5-------------|--5------3-------------|--6------5-------8------6--|
--3------3-------------|--2------2-------------|--3------3--3s-5-5------5--|
--0------0----0--0--0--|--0------0----0--0--0--|--0------0----------0-0-0--|
-----------------------|-----------------------|---------------------------|
-----------------------|-----------------------|---------------------------|


  Q.     Q    E  E  E     Q.     Q    E  E  E     Q.     Q    E  E  E   
-----------------------|-----------------------|-----------------------|
--5------3-------------|--6------5-------------|--5------3-------------|
--2------2-------------|--3------3-------------|--2------2-------------|
--0------0----0--0--0--|--0------0----0--0--0--|--0------0----0--0--0--|
-----------------------|-----------------------|-----------------------|
-----------------------|-----------------------|-----------------------|


  Q    E  S  S E  E  S S E     H        E  E  E  E     W                 
----------------------------|-----------------------|-------------------|
--6----5-------8---------6--|--5-----------6-----5--|--3----------------|
--3----3-------5---------5--|--5-----------5-----5--|--3----------------|
--0----0--5S-7-------0-0-5--|--5-----------5-----5--|--3----------------|
----------------------------|--3--------------------|--1----------------|
----------------------------|-----------------------|-------------------|


  W                   H        S S E  S S E     W                 
-------------------|-------------------------|-------------------|
-------------------|-------------------------|-------------------|
--2----------------|--L------------5------3--|--2----------------|
--2----------------|--L------------5------3--|--2----------------|
--0----------------|--L--------0-0------0----|--0----------------|
-------------------|-------------------------|-------------------|


  H        S S E  S S E     W                   H        S S E  S S E   
-------------------------|-------------------|-------------------------|
-------------------------|-------------------|-------------------------|
--L------------5------3--|--2----------------|--L------------5------3--|
--L------------5------3--|--2----------------|--L------------5------3--|
--L--------0-0------0----|--0----------------|--L--------0-0------0----|
-------------------------|-------------------|-------------------------|


  W                   W                   Q.     Q    E  E  E   
-------------------|-------------------|-----------------------|
-------------------|-------------------|--5------3-------------|
--2----------------|--2----------------|--2------2-------------|
--2----------------|--2----------------|--0------0----0--0--0--|
--0----------------|--0----------------|-----------------------|
-------------------|-------------------|-----------------------|


  Q.     Q    E  E  E     Q.     Q    E  E  E     Q.     Q.     S S  E   
-----------------------|-----------------------|------------------------|
--6------5-------------|--5------3-------------|--6------5--------5h-6--|
--3------3-------------|--2------2-------------|--3------3--------3--3--|
--0------0----0--0--0--|--0------0----0--0--0--|--0------0--------0--0--|
-----------------------|-----------------------|------------------------|
-----------------------|-----------------------|------------------------|


  Q.     Q    E  E  E     Q.     Q    E  E  E     Q.     Q    E  E  E   
-----------------------|-----------------------|-----------------------|
--5------3-------------|--6------5-------------|--5------3-------------|
--2------2-------------|--3------3-------------|--2------2-------------|
--0------0----0--0--0--|--0------0----0--0--0--|--0------0----0--0--0--|
-----------------------|-----------------------|-----------------------|
-----------------------|-----------------------|-----------------------|


  Q.     Q.     Q        H.           E  E     Q.     H        E   
----------------------|--5------------------|---------------------|
--6------5------L\----|--5---------------3--|--L------------------|
--3------3------L\----|--2---------------3--|--L---------------2--|
--0------0------L\----|--2---------------3--|--L------5--------2--|
----------------------|--0---------------1--|--L------5--------0--|
----------------------|---------------------|---------3-----------|


  H        Q.     E     Q.     Q.     Q       Q.     Q    Q.      
--5--------L---------|---------------------|---------------------|
--5--------L------3--|--L------5-----------|--5------3-----------|
--2--------L------3--|--L------5-----------|--2------2-----------|
--2--------L------3--|--L------5-----------|--0------0-----------|
--0--------L------1--|--L------3-----------|---------------------|
---------------------|---------------------|---------------------|


  Q.     Q    Q.        Q.     Q    Q.        Q.     Q    Q.      
---------------------|---------------------|---------------------|
--6------5-----------|--5------3-----------|--6------5-----------|
--3------3-----------|--2------2-----------|--3------3-----------|
--0------0-----------|--0------0-----------|--0------0-----------|
---------------------|---------------------|---------------------|
---------------------|---------------------|---------------------|


  Q.     Q    Q.        Q.     Q    Q.        Q.     Q    Q.      
---------------------|---------------------|---------------------|
--5------3-----------|--6------5-----------|--5------3-----------|
--2------2-----------|--3------3-----------|--2------2-----------|
--0------0-----------|--0------0-----------|--0------0-----------|
---------------------|---------------------|---------------------|
---------------------|---------------------|---------------------|


  Q.     Q    Q.        Q.     Q    E  E  E     Q.     Q    E  E  E   
---------------------|-----------------------|-----------------------|
--6------5-----------|--5------3-------------|--6------5-------------|
--3------3-----------|--2------2-------------|--3------3-------------|
--0------0-----------|--0------0----0--0--0--|--0------0----0--0--0--|
---------------------|-----------------------|-----------------------|
---------------------|-----------------------|-----------------------|


  Q.     Q    E  E  E     Q.     E  S  S E  S S E     Q.     Q    E  E  E   
-----------------------|---------------------------|-----------------------|
--5------3-------------|--6------5-------8------6--|--5------3-------------|
--2------2-------------|--3------3--3s-5-5------5--|--2------2-------------|
--0------0----0--0--0--|--0------0----------0-0-0--|--0------0----0--0--0--|
-----------------------|---------------------------|-----------------------|
-----------------------|---------------------------|-----------------------|


  Q.     Q    E  E  E     Q.     Q    E  E  E     Q.     Q.     S S  E   
-----------------------|-----------------------|------------------------|
--6------5-------------|--5------3-------------|--6------5--------5h-6--|
--3------3-------------|--2------2-------------|--3------3--------3--3--|
--0------0----0--0--0--|--0------0----0--0--0--|--0------0--------0--0--|
-----------------------|-----------------------|------------------------|
-----------------------|-----------------------|------------------------|


  Q.     Q    E  E  E     Q.     Q    E  E  E     Q.     Q    E  E  E   
-----------------------|-----------------------|-----------------------|
--5------3-------------|--6------5-------------|--5------3-------------|
--2------2-------------|--3------3-------------|--2------2-------------|
--0------0----0--0--0--|--0------0----0--0--0--|--0------0----0--0--0--|
-----------------------|-----------------------|-----------------------|
-----------------------|-----------------------|-----------------------|


              \1/                                                     
  Q.     Q    Q.        Q.     Q    E  E  E     Q.     Q    E  E  E   
---------------------|-----------------------|-----------------------|
--6------5----5------|--5------3-------------|--6------5-------------|
--3------3----3------|--2------2-------------|--3------3-------------|
--0------0-----------|--0------0----0--0--0--|--0------0----0--0--0--|
---------------------|-----------------------|-----------------------|
---------------------|-----------------------|-----------------------|


  Q.     Q    E  E  E     Q    E  S  S E  E  S S E     H        E  E  E  E   
-----------------------|----------------------------|-----------------------|
--5------3-------------|--6----5-------8---------6--|--5-----------6-----5--|
--2------2-------------|--3----3-------5---------5--|--5-----------5-----5--|
--0------0----0--0--0--|--0----0--5S-7-------0-0-5--|--5-----------5-----5--|
-----------------------|----------------------------|--3--------------------|
-----------------------|----------------------------|-----------------------|


  W                   Q.     Q.     Q      
-------------------|---------------------||
--3----------------|--5------3-----------||
--3----------------|--2------2-----------||
--3----------------|--0------0-----------||
--1----------------|---------------------||
-------------------|---------------------||


-------------------------------------------------------------
-------------------------------------------------------------
-------------------------------------------------------------

Guitar solo


Intro solo
                                             PH                               
  W                    H.              E     S   S     H         Q.       E   
-------------------|-------------------------------|-------------------------|
-------------------|-------------------------------|-------------------------|
-------------------|--14~-------------\L--<>12h-14-|--12--------14b------14--|
-------------------|-------------------------------|-------------------------|
-------------------|-------------------------------|-------------------------|
-------------------|-------------------------------|-------------------------|


   H          E   T T T T  E   E       H          Q.     E   
-----------------------------------|------------------------|
--------------------------17--15~--|---L~---------L---------|
--14~---------L\------x-x----------|------------------------|
--------------------x--------------|------------------------|
------------------x----------------|------------------------|
-----------------------------------|------------------------|


                                                 |---3---|           
   H           Q.      S  S     E.   Q      E.   S   S   S   E   E   
----------------------------|---------------------------------------|
----------------------------|---------------------------------------|
--17br--------14------12-14-|--15---15b----14---14h-15p-14p-12------|
----------------------------|-----------------------------------15--|
----------------------------|---------------------------------------|
----------------------------|---------------------------------------|


   H           Q.      S  S     W                     H           H           
----------------------------|---------------------|--------------------------|
----------------------------|---------------------|--------------------------|
--17br--------14------12-14-|--15b----------------|---Lpb---------Lpb--------|
----------------------------|---------------------|--------------------------|
----------------------------|---------------------|--------------------------|
----------------------------|---------------------|--------------------------|


  W                   Q.     E  H           W                 
--0----------------|---------------------|--0----------------|
--3----------------|--3------5--L--------|--3----------------|
--2----------------|--3------5--L--------|--2----------------|
--0----------------|--3------5--L--------|--0----------------|
-------------------|---------3--L--------|-------------------|
-------------------|---------------------|-------------------|


  Q.     E  H           W                   Q.     E  H         
---------------------|--0----------------|---------------------|
--3------5--L--------|--3----------------|--3------5--L--------|
--3------5--L--------|--2----------------|--3------5--L--------|
--3------2--L--------|--0----------------|--3------5--L--------|
---------3--L--------|-------------------|---------3--L--------|
---------------------|-------------------|---------------------|


  W                   Q.     E  H           W                 
--0----------------|---------------------|-------------------|
--3----------------|--3------5--L--------|-------------------|
--2----------------|--3------5--L--------|-------------------|
--0----------------|--3------5--L--------|-------------------|
-------------------|---------3--L--------|-------------------|
-------------------|---------------------|-------------------|



Little lick
  W                   W                   Q.     E   E  Q.       
-------------------|-------------------|------------------------|
-------------------|-------------------|------------------------|
-------------------|-------------------|----------------5~------|
-------------------|-------------------|----------------5~------|
-------------------|-------------------|---------1s--3----------|
-------------------|-------------------|------------------------|





                      W                   Q.     E  H         
-------------------|--0----------------|---------------------|
-------------------|--3----------------|--3------5--L--------|
-------------------|--2----------------|--3------5--L--------|
-------------------|--0----------------|--3------5--L--------|
-------------------|-------------------|---------3--L--------|
-------------------|-------------------|---------------------|


  W                   Q.     Q    S  S   Q        W                 
--0----------------|---------------------------|--0----------------|
--3----------------|--3------5-----------------|--3----------------|
--2----------------|--3------5---------<>7~----|--2----------------|
--0----------------|--3------5----5S-7---------|--0----------------|
-------------------|---------3-----------------|-------------------|
-------------------|---------------------------|-------------------|


  Q.     E  H           W                   Q.     E  H         
---------------------|--0----------------|---------------------|
--3------5--L--------|--3----------------|--3------5--L--------|
--3------5--L--------|--2----------------|--3------5--L--------|
--3------5--L--------|--0----------------|--3------5--L--------|
---------3--L--------|-------------------|---------3--L--------|
---------------------|-------------------|---------------------|





         
main solo                                                    PM PM  
                                          H         E.   S S S. S.  
-------------------|-------------------|---------------------------|
-------------------|-------------------|---------------------------|
-------------------|-------------------|------------------------5--|
-------------------|-------------------|--7~--------7\-------7-----|
-------------------|-------------------|-------------------7-------|
-------------------|-------------------|---------------------------|


  PM         \1/                 W        W                    
  S. S. S.   H        S  E  T    Q    E   Q    E   S T S T S   
------------------------------|-------------------------------|
--5-----1--<>5--------5p-1----|--6----L\--5----L\--5---6---8h-|
-----2------------------------|-------------------------------|
------------------------------|-------------------------------|
------------------------------|-------------------------------|
------------------------------|-------------------------------|


                                                        \1/       
  S S T S S S T S T S S S T T T Q       S S S S S S S S H         
-------------------------------------|---------------------------|
--6-5-6-----5---6---8-6-5-6-5---5----|----------5-7-5------------|
--------8---------------------7------|------6-7-------7-6--------|
-------------------------------------|--7-7----------------------|
-------------------------------------|---------------------------|
-------------------------------------|---------------------------|


  \1                     
  Q.     S  H         S  
------------------------|
-----------10b----------|
--0---------------------|
------------------------|
------------------------|
------------------------|


  T T T T T T T T T T  T  T  T  T  T T T. T.  T.T. T.  T.  T T. T.  T. T. 
-------------------------------------------------------------------------|
-------------------------------------------------------------------------|
------------------------------------------------7s-8--11s-12----9--10-12-|
----------------------------------10---7--8--10--------------------------|
--------5-6-8-9---8-9-10-11-12-13----------------------------------------|
--5-6-7------------------------------------------------------------------|


  T.  T. T. T.  T. T. T. T. T. T  T  T. T  T  T  T  T  T  T  T  T  T  T  T  T  T
------------------------11-15----------12-13-15-13-12-12----12-13-15-13-12-13-12|
--9s-10-13-10s-11-13-15-------13-15-16-------------------15---------------------|
--------------------------------------------------------------------------------|
--------------------------------------------------------------------------------|
--------------------------------------------------------------------------------|
--------------------------------------------------------------------------------|


                                                 |---3---|           
   H           Q.      S  S     E.   Q      E.   S   S   S   E   E   
----------------------------|---------------------------------------|
----------------------------|---------------------------------------|
--17br--------14------12-14-|--15---15b----14---14h-15p-14p-12------|
----------------------------|-----------------------------------15--|
----------------------------|---------------------------------------|
----------------------------|---------------------------------------|


   H           Q.      S  S     W                     H           Q.      S  S  
----------------------------|---------------------|----------------------------|
----------------------------|---------------------|----------------------------|
--17br--------14------12-14-|--15b----------------|--17br--------14------12-14-|
----------------------------|---------------------|----------------------------|
----------------------------|---------------------|----------------------------|
----------------------------|---------------------|----------------------------|


                    |---3---|                                     
   E.   Q      E.   S   S   S   E   E      H           H          
---------------------------------------|-------------------------|
---------------------------------------|-------------------------|
--15---15b----14---14h-15p-14p-12------|--17br--------14~--------|
-----------------------------------15--|-------------------------|
---------------------------------------|-------------------------|
---------------------------------------|-------------------------|


-------------------------------------------------------------
-------------------------------------------------------------
-------------------------------------------------------------

Intro Harmony part



                           H          Q.      S  S  
-------|-------|-------|---------------------------|
-------|-------|-------|--17b--------15------13-15-|
-------|-------|-------|---------------------------|
-------|-------|-------|---------------------------|
-------|-------|-------|---------------------------|
-------|-------|-------|---------------------------|


                     |---3---|                                       
   E.   Q       E.   S   S   S   E   E      H          Q.      S  S  
----------------------------------------|---------------------------|
--17---17br----15---15h-17p-15p-13------|--17b--------15------13-15-|
------------------------------------15--|---------------------------|
----------------------------------------|---------------------------|
----------------------------------------|---------------------------|
----------------------------------------|---------------------------|


   W                     H.              Q                                      
---------------------|-------------------------|-------|-------|-------|-------|
--15b----------------|---Lpb-------------L\----|-------|-------|-------|-------|
---------------------|-------------------------|-------|-------|-------|-------|
---------------------|-------------------------|-------|-------|-------|-------|
---------------------|-------------------------|-------|-------|-------|-------|
---------------------|-------------------------|-------|-------|-------|-------|







Duration Legend
---------------
W - whole
H - half
Q - quarter
E - 8th
S - 16th
T - 32nd
X - 64th
. - note dotted
|-n-|  - n-tuplets


Tablature Legend
----------------
L - tied note
x - dead note
g - grace note
(n) - ghost note
> - accentuded note
NH - natural harmonic
AH - artificial harmonic
TH - tapped harmonic
SH - semi harmonic
PH - pitch harmonic
h - hammer on
p - pull off
b - bend
br - bendRelease
pb - preBend
pbr - preBendRelease
brb - bendReleaseBend
\n/ - tremolo bar dip
\n - tremolo bar dive
-/n - tremolo bar Release up
/n\ - tremolo bar inverted dip
/n - tremolo bar return
-\n - tremolo bar Release down
S - shift slide
s - legato slide
/ -  slide into from below or out of upwards
\ -  slide into from above or out of downwards
~ - vibrato
W - wide vibrato
tr - trill
TP - tremolo picking
T - tapping
S - slap
P - pop
< - fade in
^ - brush up
v - brush down
comments
We did not receive enough feedback on this tab! Please rate:
print report bad tab
1 2 3 4 5
I want to post or [tab]
guest
You may want to rate the tab now too:
select rating
Please do not post tabs as comments. Select "correction" instead!